  0
SECTION
  2
HEADER
  9
$ACADVER
  1
AC1015
  9
$ACADMAINTVER
 70
     6
  9
$DWGCODEPAGE
  3
ANSI_1252
  9
$INSBASE
 10
0.0
 20
0.0
 30
0.0
  9
$EXTMIN
 10
-380.2
 20
0.0
 30
0.0
  9
$EXTMAX
 10
380.2
 20
400.0
 30
0.0
  9
$LIMMIN
 10
0.0
 20
0.0
  9
$LIMMAX
 10
420.0
 20
297.0
  9
$ORTHOMODE
 70
     0
  9
$REGENMODE
 70
     1
  9
$FILLMODE
 70
     1
  9
$QTEXTMODE
 70
     0
  9
$MIRRTEXT
 70
     1
  9
$LTSCALE
 40
1.0
  9
$ATTMODE
 70
     1
  9
$TEXTSIZE
 40
3.5
  9
$TRACEWID
 40
1.0
  9
$TEXTSTYLE
  7
Standard
  9
$CLAYER
  8
0
  9
$CELTYPE
  6
ByLayer
  9
$CECOLOR
 62
   256
  9
$CELTSCALE
 40
1.0
  9
$DISPSILH
 70
     0
  9
$DIMSCALE
 40
1.0
  9
$DIMASZ
 40
3.302
  9
$DIMEXO
 40
1.0
  9
$DIMDLI
 40
3.75
  9
$DIMRND
 40
0.0
  9
$DIMDLE
 40
0.0
  9
$DIMEXE
 40
1.0
  9
$DIMTP
 40
0.0
  9
$DIMTM
 40
0.0
  9
$DIMTXT
 40
3.5
  9
$DIMCEN
 40
2.5
  9
$DIMTSZ
 40
0.0
  9
$DIMTOL
 70
     0
  9
$DIMLIM
 70
     0
  9
$DIMTIH
 70
     1
  9
$DIMTOH
 70
     1
  9
$DIMSE1
 70
     0
  9
$DIMSE2
 70
     0
  9
$DIMTAD
 70
     1
  9
$DIMZIN
 70
     1
  9
$DIMBLK
  1

  9
$DIMASO
 70
     1
  9
$DIMSHO
 70
     1
  9
$DIMPOST
  1

  9
$DIMAPOST
  1

  9
$DIMALT
 70
     0
  9
$DIMALTD
 70
     3
  9
$DIMALTF
 40
0.0393700787
  9
$DIMLFAC
 40
1.0
  9
$DIMTOFL
 70
     1
  9
$DIMTVP
 40
0.0
  9
$DIMTIX
 70
     0
  9
$DIMSOXD
 70
     0
  9
$DIMSAH
 70
     0
  9
$DIMBLK1
  1

  9
$DIMBLK2
  1

  9
$DIMSTYLE
  2
ISO-25
  9
$DIMCLRD
 70
     0
  9
$DIMCLRE
 70
     0
  9
$DIMCLRT
 70
     0
  9
$DIMTFAC
 40
1.0
  9
$DIMGAP
 40
1.524
  9
$DIMJUST
 70
     0
  9
$DIMSD1
 70
     0
  9
$DIMSD2
 70
     0
  9
$DIMTOLJ
 70
     0
  9
$DIMTZIN
 70
     1
  9
$DIMALTZ
 70
     0
  9
$DIMALTTZ
 70
     0
  9
$DIMUPT
 70
     0
  9
$DIMDEC
 70
     2
  9
$DIMTDEC
 70
     2
  9
$DIMALTU
 70
     2
  9
$DIMALTTD
 70
     3
  9
$DIMTXSTY
  7
Standard
  9
$DIMAUNIT
 70
     0
  9
$DIMADEC
 70
     2
  9
$DIMALTRND
 40
0.0
  9
$DIMAZIN
 70
     0
  9
$DIMDSEP
 70
    44
  9
$DIMATFIT
 70
     3
  9
$DIMFRAC
 70
     0
  9
$DIMLDRBLK
  1

  9
$DIMLUNIT
 70
     2
  9
$DIMLWD
 70
    -2
  9
$DIMLWE
 70
    -2
  9
$DIMTMOVE
 70
     0
  9
$LUNITS
 70
     2
  9
$LUPREC
 70
     2
  9
$SKETCHINC
 40
1.0
  9
$FILLETRAD
 40
10.0
  9
$AUNITS
 70
     0
  9
$AUPREC
 70
     2
  9
$MENU
  1
.
  9
$ELEVATION
 40
0.0
  9
$PELEVATION
 40
0.0
  9
$THICKNESS
 40
0.0
  9
$LIMCHECK
 70
     0
  9
$CHAMFERA
 40
0.0
  9
$CHAMFERB
 40
0.0
  9
$CHAMFERC
 40
0.0
  9
$CHAMFERD
 40
0.0
  9
$SKPOLY
 70
     0
  9
$TDCREATE
 40
2459257.499365486
  9
$TDUCREATE
 40
2459257.499365486
  9
$TDUPDATE
 40
2459257.499411076
  9
$TDUUPDATE
 40
2459257.499411076
  9
$TDINDWG
 40
0.0000000116
  9
$TDUSRTIMER
 40
0.0000000116
  9
$USRTIMER
 70
     1
  9
$ANGBASE
 50
0.0
  9
$ANGDIR
 70
     0
  9
$PDMODE
 70
     0
  9
$PDSIZE
 40
-1.0
  9
$PLINEWID
 40
0.0
  9
$SPLFRAME
 70
     0
  9
$SPLINETYPE
 70
     6
  9
$SPLINESEGS
 70
     8
  9
$HANDSEED
  5
3F3
  9
$SURFTAB1
 70
     6
  9
$SURFTAB2
 70
     6
  9
$SURFTYPE
 70
     6
  9
$SURFU
 70
     6
  9
$SURFV
 70
     6
  9
$UCSBASE
  2

  9
$UCSNAME
  2

  9
$UCSORG
 10
0.0
 20
0.0
 30
0.0
  9
$UCSXDIR
 10
1.0
 20
0.0
 30
0.0
  9
$UCSYDIR
 10
0.0
 20
1.0
 30
0.0
  9
$UCSORTHOREF
  2

  9
$UCSORTHOVIEW
 70
     0
  9
$UCSORGTOP
 10
0.0
 20
0.0
 30
0.0
  9
$UCSORGBOTTOM
 10
0.0
 20
0.0
 30
0.0
  9
$UCSORGLEFT
 10
0.0
 20
0.0
 30
0.0
  9
$UCSORGRIGHT
 10
0.0
 20
0.0
 30
0.0
  9
$UCSORGFRONT
 10
0.0
 20
0.0
 30
0.0
  9
$UCSORGBACK
 10
0.0
 20
0.0
 30
0.0
  9
$PUCSBASE
  2

  9
$PUCSNAME
  2

  9
$PUCSORG
 10
0.0
 20
0.0
 30
0.0
  9
$PUCSXDIR
 10
1.0
 20
0.0
 30
0.0
  9
$PUCSYDIR
 10
0.0
 20
1.0
 30
0.0
  9
$PUCSORTHOREF
  2

  9
$PUCSORTHOVIEW
 70
     0
  9
$PUCSORGTOP
 10
0.0
 20
0.0
 30
0.0
  9
$PUCSORGBOTTOM
 10
0.0
 20
0.0
 30
0.0
  9
$PUCSORGLEFT
 10
0.0
 20
0.0
 30
0.0
  9
$PUCSORGRIGHT
 10
0.0
 20
0.0
 30
0.0
  9
$PUCSORGFRONT
 10
0.0
 20
0.0
 30
0.0
  9
$PUCSORGBACK
 10
0.0
 20
0.0
 30
0.0
  9
$USERI1
 70
     0
  9
$USERI2
 70
     0
  9
$USERI3
 70
     0
  9
$USERI4
 70
     0
  9
$USERI5
 70
     0
  9
$USERR1
 40
0.0
  9
$USERR2
 40
0.0
  9
$USERR3
 40
0.0
  9
$USERR4
 40
0.0
  9
$USERR5
 40
0.0
  9
$WORLDVIEW
 70
     1
  9
$SHADEDGE
 70
     3
  9
$SHADEDIF
 70
    70
  9
$TILEMODE
 70
     1
  9
$MAXACTVP
 70
    64
  9
$PINSBASE
 10
0.0
 20
0.0
 30
0.0
  9
$PLIMCHECK
 70
     0
  9
$PEXTMIN
 10
-380.2
 20
0.0
 30
0.0
  9
$PEXTMAX
 10
380.2
 20
400.0
 30
0.0
  9
$PLIMMIN
 10
-439.3750972763
 20
-22.1906614786
  9
$PLIMMAX
 10
439.3750972763
 20
599.1478599222
  9
$UNITMODE
 70
     0
  9
$VISRETAIN
 70
     1
  9
$PLINEGEN
 70
     0
  9
$PSLTSCALE
 70
     1
  9
$TREEDEPTH
 70
  3020
  9
$CMLSTYLE
  2
Standard
  9
$CMLJUST
 70
     0
  9
$CMLSCALE
 40
20.0
  9
$PROXYGRAPHICS
 70
     1
  9
$MEASUREMENT
 70
     1
  9
$CELWEIGHT
370
    -1
  9
$ENDCAPS
280
     0
  9
$JOINSTYLE
280
     0
  9
$LWDISPLAY
290
     1
  9
$INSUNITS
 70
     4
  9
$HYPERLINKBASE
  1

  9
$STYLESHEET
  1

  9
$XEDIT
290
     1
  9
$CEPSNTYPE
380
     0
  9
$PSTYLEMODE
290
     1
  9
$FINGERPRINTGUID
  2
{47525629-71dc-4ffb-a408-e54d5bd07ed5}
  9
$VERSIONGUID
  2
{FAEB1C32-E019-11D5-929B-00C0DF256EC4}
  9
$EXTNAMES
290
     1
  9
$PSVPSCALE
 40
0.0
  9
$OLESTARTUP
290
     0
  0
ENDSEC
  0
SECTION
  2
CLASSES
  0
CLASS
  1
ACDBDICTIONARYWDFLT
  2
AcDbDictionaryWithDefault
  3
ObjectDBX Classes
 90
        0
280
     0
281
     0
  0
CLASS
  1
VISUALSTYLE
  2
AcDbVisualStyle
  3
ObjectDBX Classes
 90
     4095
280
     0
281
     0
  0
CLASS
  1
MATERIAL
  2
AcDbMaterial
  3
ObjectDBX Classes
 90
     1153
280
     0
281
     0
  0
CLASS
  1
SCALE
  2
AcDbScale
  3
ObjectDBX Classes
 90
     1153
280
     0
281
     0
  0
CLASS
  1
TABLESTYLE
  2
AcDbTableStyle
  3
ObjectDBX Classes
 90
     4095
280
     0
281
     0
  0
CLASS
  1
MLEADERSTYLE
  2
AcDbMLeaderStyle
  3
ACDB_MLEADERSTYLE_CLASS
 90
     4095
280
     0
281
     0
  0
CLASS
  1
SUN
  2
AcDbSun
  3
SCENEOE
 90
     1153
280
     0
281
     0
  0
CLASS
  1
ACDBPLACEHOLDER
  2
AcDbPlaceHolder
  3
ObjectDBX Classes
 90
        0
280
     0
281
     0
  0
CLASS
  1
LAYOUT
  2
AcDbLayout
  3
ObjectDBX Classes
 90
        0
280
     0
281
     0
  0
ENDSEC
  0
SECTION
  2
TABLES
  0
TABLE
  2
VPORT
  5
8
330
0
100
AcDbSymbolTable
 70
     1
  0
VPORT
  5
29
330
8
100
AcDbSymbolTableRecord
100
AcDbViewportTableRecord
  2
*Active
 70
     0
 10
0.0
 20
0.0
 11
1.0
 21
1.0
 12
0.0
 22
200.0
 13
0.0
 23
0.0
 14
10.0
 24
10.0
 15
10.0
 25
10.0
 16
0.0
 26
0.0
 36
1.0
 17
0.0
 27
0.0
 37
0.0
 40
408.0
 41
1.901
 42
50.0
 43
0.0
 44
0.0
 50
0.0
 51
0.0
 71
     0
 72
   100
 73
     1
 74
     3
 75
     0
 76
     0
 77
     0
 78
     0
281
     0
 65
     1
110
0.0
120
0.0
130
0.0
111
1.0
121
0.0
131
0.0
112
0.0
122
1.0
132
0.0
 79
     0
146
0.0
  0
ENDTAB
  0
TABLE
  2
LTYPE
  5
5
330
0
100
AcDbSymbolTable
 70
     6
  0
LTYPE
  5
14
330
5
100
AcDbSymbolTableRecord
100
AcDbLinetypeTableRecord
  2
ByBlock
 70
     0
  3

 72
    65
 73
     0
 40
0.0
  0
LTYPE
  5
15
330
5
100
AcDbSymbolTableRecord
100
AcDbLinetypeTableRecord
  2
ByLayer
 70
     0
  3

 72
    65
 73
     0
 40
0.0
  0
LTYPE
  5
16
330
5
100
AcDbSymbolTableRecord
100
AcDbLinetypeTableRecord
  2
Continuous
 70
     0
  3
Solid line
 72
    65
 73
     0
 40
0.0
  0
LTYPE
  5
6E
330
5
100
AcDbSymbolTableRecord
100
AcDbLinetypeTableRecord
  2
HIDDEN
 70
     0
  3
Hidden __ __ __ __ __ __ __ __ __ __ __ __ __ __
 72
    65
 73
     2
 40
1.905
 49
1.27
 74
     0
 49
-0.635
 74
     0
  0
LTYPE
  5
6F
330
5
100
AcDbSymbolTableRecord
100
AcDbLinetypeTableRecord
  2
PHANTOM
 70
     0
  3
Phantom ______  __  __  ______  __  __  ______
 72
    65
 73
     6
 40
12.7
 49
6.35
 74
     0
 49
-1.27
 74
     0
 49
1.27
 74
     0
 49
-1.27
 74
     0
 49
1.27
 74
     0
 49
-1.27
 74
     0
  0
LTYPE
  5
70
330
5
100
AcDbSymbolTableRecord
100
AcDbLinetypeTableRecord
  2
CENTER
 70
     0
  3
Center ____ _ ____ _ ____ _ ____ _ ____ _ ____
 72
    65
 73
     4
 40
10.16
 49
6.35
 74
     0
 49
-1.27
 74
     0
 49
1.27
 74
     0
 49
-1.27
 74
     0
  0
LTYPE
  5
71
330
5
100
AcDbSymbolTableRecord
100
AcDbLinetypeTableRecord
  2
CENTERX2
 70
     0
  3
Center (2x) ________  __  ________  __  _____
 72
    65
 73
     4
 40
20.32
 49
12.7
 74
     0
 49
-2.54
 74
     0
 49
2.54
 74
     0
 49
-2.54
 74
     0
  0
LTYPE
  5
72
330
5
100
AcDbSymbolTableRecord
100
AcDbLinetypeTableRecord
  2
DOT2
 70
     0
  3
Dot (.5x) ........................................
 72
    65
 73
     2
 40
0.635
 49
0.0
 74
     0
 49
-0.635
 74
     0
  0
ENDTAB
  0
TABLE
  2
LAYER
  5
2
330
0
100
AcDbSymbolTable
 70
     1
  0
LAYER
  5
10
330
2
100
AcDbSymbolTableRecord
100
AcDbLayerTableRecord
  2
0
 70
     0
 62
     7
  6
Continuous
370
    -3
390
F
  0
ENDTAB
  0
TABLE
  2
STYLE
  5
3
330
0
100
AcDbSymbolTable
 70
     1
  0
STYLE
  5
11
330
3
100
AcDbSymbolTableRecord
100
AcDbTextStyleTableRecord
  2
Standard
 70
     0
 40
0.0
 41
1.0
 50
0.0
 71
     0
 42
3.5
  3
txt
  4

  0
ENDTAB
  0
TABLE
  2
VIEW
  5
6
330
0
100
AcDbSymbolTable
 70
     0
  0
ENDTAB
  0
TABLE
  2
UCS
  5
7
330
0
100
AcDbSymbolTable
 70
     0
  0
ENDTAB
  0
TABLE
  2
APPID
  5
9
330
0
100
AcDbSymbolTable
 70
     1
  0
APPID
  5
12
330
9
100
AcDbSymbolTableRecord
100
AcDbRegAppTableRecord
  2
ACAD
 70
     0
  0
ENDTAB
  0
TABLE
  2
DIMSTYLE
  5
A
330
0
100
AcDbSymbolTable
 70
     1
100
AcDbDimStyleTable
  0
DIMSTYLE
105
27
330
A
100
AcDbSymbolTableRecord
100
AcDbDimStyleTableRecord
  2
ISO-25
 70
     0
 41
2.5
 42
0.625
 43
3.75
 44
1.25
 73
     0
 74
     0
 77
     1
 78
     8
140
2.5
141
2.5
143
0.0393700787
147
0.625
171
     3
172
     1
178
     0
271
     2
272
     2
274
     3
278
    44
283
     0
284
     8
340
11
  0
ENDTAB
  0
TABLE
  2
BLOCK_RECORD
  5
1
330
0
100
AcDbSymbolTable
 70
     3
  0
BLOCK_RECORD
  5
1F
330
1
100
AcDbSymbolTableRecord
100
AcDbBlockTableRecord
  2
*Model_Space
340
22
  0
BLOCK_RECORD
  5
1B
330
1
100
AcDbSymbolTableRecord
100
AcDbBlockTableRecord
  2
*Paper_Space
340
1E
  0
BLOCK_RECORD
  5
23
330
1
100
AcDbSymbolTableRecord
100
AcDbBlockTableRecord
  2
*Paper_Space0
340
26
  0
BLOCK_RECORD
  5
18C
330
1
100
AcDbSymbolTableRecord
100
AcDbBlockTableRecord
  2
*Paper_Space1
340
18D
  0
BLOCK_RECORD
  5
277
330
1
100
AcDbSymbolTableRecord
100
AcDbBlockTableRecord
  2
*Paper_Space2
340
278
  0
ENDTAB
  0
ENDSEC
  0
SECTION
  2
BLOCKS
  0
BLOCK
  5
20
330
1F
100
AcDbEntity
  8
0
100
AcDbBlockBegin
  2
*Model_Space
 70
     0
 10
0.0
 20
0.0
 30
0.0
  3
*Model_Space
  1

  0
ENDBLK
  5
21
330
1F
100
AcDbEntity
  8
0
100
AcDbBlockEnd
  0
BLOCK
  5
1C
330
1B
100
AcDbEntity
 67
     1
  8
0
100
AcDbBlockBegin
  2
*Paper_Space
 70
     0
 10
0.0
 20
0.0
 30
0.0
  3
*Paper_Space
  1

  0
ENDBLK
  5
1D
330
1B
100
AcDbEntity
 67
     1
  8
0
100
AcDbBlockEnd
  0
BLOCK
  5
24
330
23
100
AcDbEntity
  8
0
100
AcDbBlockBegin
  2
*Paper_Space0
 70
     0
 10
0.0
 20
0.0
 30
0.0
  3
*Paper_Space0
  1

  0
LINE
  5
181
330
23
100
AcDbEntity
  8
0
  6
Continuous
 62
     7
370
    25
100
AcDbLine
 10
186.0
 20
400.0
 30
0.0
 11
186.0
 21
0.0
 31
0.0
  0
LINE
  5
182
330
23
100
AcDbEntity
  8
0
  6
Continuous
 62
     7
370
    25
100
AcDbLine
 10
204.2
 20
0.0
 30
0.0
 11
-226.0
 21
0.0
 31
0.0
  0
LINE
  5
183
330
23
100
AcDbEntity
  8
0
  6
Continuous
 62
     7
370
    25
100
AcDbLine
 10
-226.0
 20
400.0
 30
0.0
 11
186.0
 21
400.0
 31
0.0
  0
LINE
  5
184
330
23
100
AcDbEntity
  8
0
  6
Continuous
 62
     7
370
    25
100
AcDbLine
 10
-226.0
 20
0.0
 30
0.0
 11
-226.0
 21
400.0
 31
0.0
  0
LINE
  5
185
330
23
100
AcDbEntity
  8
0
  6
Continuous
 62
     7
370
    25
100
AcDbLine
 10
194.5
 20
317.9
 30
0.0
 11
194.5
 21
394.5
 31
0.0
  0
LINE
  5
186
330
23
100
AcDbEntity
  8
0
  6
Continuous
 62
     7
370
    25
100
AcDbLine
 10
186.0
 20
394.5
 30
0.0
 11
204.5
 21
394.5
 31
0.0
  0
LINE
  5
187
330
23
100
AcDbEntity
  8
0
  6
Continuous
 62
     7
370
    25
100
AcDbLine
 10
204.5
 20
394.5
 30
0.0
 11
204.5
 21
317.9
 31
0.0
  0
LINE
  5
188
330
23
100
AcDbEntity
  8
0
  6
Continuous
 62
     7
370
    25
100
AcDbLine
 10
204.5
 20
317.9
 30
0.0
 11
186.0
 21
317.9
 31
0.0
  0
LINE
  5
189
330
23
100
AcDbEntity
  8
0
  6
Continuous
 62
     7
370
    25
100
AcDbLine
 10
194.2
 20
0.0
 30
0.0
 11
194.2
 21
305.0
 31
0.0
  0
LINE
  5
18A
330
23
100
AcDbEntity
  8
0
  6
Continuous
 62
     7
370
    25
100
AcDbLine
 10
186.0
 20
305.0
 30
0.0
 11
204.2
 21
305.0
 31
0.0
  0
LINE
  5
18B
330
23
100
AcDbEntity
  8
0
  6
Continuous
 62
     7
370
    25
100
AcDbLine
 10
204.2
 20
305.0
 30
0.0
 11
204.2
 21
0.0
 31
0.0
  0
VIEWPORT
  5
3ED
330
23
100
AcDbEntity
  8
0
100
AcDbViewport
 10
0.0
 20
0.0
 30
0.0
 40
205.6
 41
156.0
 68
     1
 69
     1
 12
0.0
 22
200.0
 13
0.0
 23
0.0
 14
10.0
 24
10.0
 15
10.0
 25
10.0
 16
0.0
 26
0.0
 36
1.0
 17
0.0
 27
0.0
 37
0.0
 42
50.0
 43
0.0
 44
0.0
 45
588.4963424125
 50
0.0
 51
0.0
 72
   100
 90
   557152
  1

281
     0
 71
     1
 74
     0
110
0.0
120
0.0
130
0.0
111
1.0
121
0.0
131
0.0
112
0.0
122
1.0
132
0.0
 79
     0
146
0.0
  0
ENDBLK
  5
25
330
23
100
AcDbEntity
  8
0
100
AcDbBlockEnd
  0
BLOCK
  5
18E
330
18C
100
AcDbEntity
  8
0
100
AcDbBlockBegin
  2
*Paper_Space1
 70
     0
 10
0.0
 20
0.0
 30
0.0
  3
*Paper_Space1
  1

  0
LINE
  5
217
330
18C
100
AcDbEntity
  8
0
  6
Continuous
 62
     7
370
    25
100
AcDbLine
 10
-355.1
 20
188.75
 30
0.0
 11
-337.0
 21
188.75
 31
0.0
  0
LINE
  5
218
330
18C
100
AcDbEntity
  8
0
  6
Continuous
 62
     7
370
    25
100
AcDbLine
 10
-337.0
 20
198.25
 30
0.0
 11
-355.1
 21
198.25
 31
0.0
  0
LINE
  5
219
330
18C
100
AcDbEntity
  8
0
  6
Continuous
 62
     7
370
    25
100
AcDbLine
 10
355.1
 20
198.25
 30
0.0
 11
337.0
 21
198.25
 31
0.0
  0
LINE
  5
21A
330
18C
100
AcDbEntity
  8
0
  6
Continuous
 62
     7
370
    25
100
AcDbLine
 10
337.0
 20
188.75
 30
0.0
 11
355.1
 21
188.75
 31
0.0
  0
LINE
  5
21B
330
18C
100
AcDbEntity
  8
0
  6
Continuous
 62
     7
370
    25
100
AcDbLine
 10
340.2
 20
118.0
 30
0.0
 11
340.2
 21
98.0
 31
0.0
  0
LINE
  5
21C
330
18C
100
AcDbEntity
  8
0
  6
Continuous
 62
     7
370
    25
100
AcDbLine
 10
356.2
 20
98.0
 30
0.0
 11
356.2
 21
118.0
 31
0.0
  0
LINE
  5
21D
330
18C
100
AcDbEntity
  8
0
  6
Continuous
 62
     7
370
    25
100
AcDbLine
 10
343.2
 20
98.0
 30
0.0
 11
343.2
 21
-167.8
 31
0.0
  0
LINE
  5
21E
330
18C
100
AcDbEntity
  8
0
  6
Continuous
 62
     7
370
    25
100
AcDbLine
 10
353.2
 20
98.0
 30
0.0
 11
353.2
 21
-167.8
 31
0.0
  0
LINE
  5
21F
330
18C
100
AcDbEntity
  8
0
  6
Continuous
 62
     7
370
    25
100
AcDbLine
 10
-354.8
 20
118.0
 30
0.0
 11
-354.8
 21
98.0
 31
0.0
  0
LINE
  5
220
330
18C
100
AcDbEntity
  8
0
  6
Continuous
 62
     7
370
    25
100
AcDbLine
 10
-338.8
 20
98.0
 30
0.0
 11
-338.8
 21
118.0
 31
0.0
  0
LINE
  5
221
330
18C
100
AcDbEntity
  8
0
  6
Continuous
 62
     7
370
    25
100
AcDbLine
 10
-351.8
 20
98.0
 30
0.0
 11
-351.8
 21
-167.8
 31
0.0
  0
LINE
  5
222
330
18C
100
AcDbEntity
  8
0
  6
Continuous
 62
     7
370
    25
100
AcDbLine
 10
-341.8
 20
-167.8
 30
0.0
 11
-341.8
 21
98.0
 31
0.0
  0
LINE
  5
223
330
18C
100
AcDbEntity
  8
0
  6
Continuous
 62
     7
370
    25
100
AcDbLine
 10
-309.1
 20
224.1
 30
0.0
 11
-309.1
 21
226.0
 31
0.0
  0
LINE
  5
224
330
18C
100
AcDbEntity
  8
0
  6
Continuous
 62
     7
370
    25
100
AcDbLine
 10
-309.1
 20
224.1
 30
0.0
 11
-355.1
 21
224.1
 31
0.0
  0
LINE
  5
225
330
18C
100
AcDbEntity
  8
0
  6
Continuous
 62
     7
370
    25
100
AcDbLine
 10
-355.1
 20
178.1
 30
0.0
 11
-355.1
 21
224.1
 31
0.0
  0
LINE
  5
226
330
18C
100
AcDbEntity
  8
0
  6
Continuous
 62
     7
370
    25
100
AcDbLine
 10
-357.0
 20
178.1
 30
0.0
 11
-355.1
 21
178.1
 31
0.0
  0
LINE
  5
227
330
18C
100
AcDbEntity
  8
0
  6
Continuous
 62
     7
370
    25
100
AcDbLine
 10
-309.1
 20
226.0
 30
0.0
 11
-357.0
 21
226.0
 31
0.0
  0
LINE
  5
228
330
18C
100
AcDbEntity
  8
0
  6
Continuous
 62
     7
370
    25
100
AcDbLine
 10
-362.0
 20
226.0
 30
0.0
 11
-380.2
 21
226.0
 31
0.0
  0
LINE
  5
229
330
18C
100
AcDbEntity
  8
0
  6
Continuous
 62
     7
370
    25
100
AcDbLine
 10
-362.0
 20
226.0
 30
0.0
 11
-362.0
 21
-186.0
 31
0.0
  0
LINE
  5
22A
330
18C
100
AcDbEntity
  8
0
  6
Continuous
 62
     7
370
    25
100
AcDbLine
 10
-380.2
 20
226.0
 30
0.0
 11
-380.2
 21
-194.5
 31
0.0
  0
LINE
  5
22B
330
18C
100
AcDbEntity
  8
0
  6
Continuous
 62
     7
370
    25
100
AcDbLine
 10
-358.8
 20
178.0
 30
0.0
 11
-357.0
 21
178.0
 31
0.0
  0
LINE
  5
22C
330
18C
100
AcDbEntity
  8
0
  6
Continuous
 62
     7
370
    25
100
AcDbLine
 10
-358.8
 20
209.0
 30
0.0
 11
-357.0
 21
209.0
 31
0.0
  0
LINE
  5
22D
330
18C
100
AcDbEntity
  8
0
  6
Continuous
 62
     7
370
    25
100
AcDbLine
 10
-357.0
 20
226.0
 30
0.0
 11
-357.0
 21
177.0
 31
0.0
  0
LINE
  5
22E
330
18C
100
AcDbEntity
  8
0
  6
Continuous
 62
     7
370
    25
100
AcDbLine
 10
-358.8
 20
177.0
 30
0.0
 11
-358.8
 21
210.0
 31
0.0
  0
LINE
  5
22F
330
18C
100
AcDbEntity
  8
0
  6
Continuous
 62
     7
370
    25
100
AcDbLine
 10
-360.0
 20
211.2
 30
0.0
 11
-362.0
 21
211.2
 31
0.0
  0
LINE
  5
230
330
18C
100
AcDbEntity
  8
0
  6
Continuous
 62
     7
370
    25
100
AcDbLine
 10
-362.0
 20
213.0
 30
0.0
 11
-360.0
 21
213.0
 31
0.0
  0
LINE
  5
231
330
18C
100
AcDbEntity
  8
0
  6
Continuous
 62
     7
370
    25
100
AcDbLine
 10
-362.0
 20
174.0
 30
0.0
 11
-360.0
 21
174.0
 31
0.0
  0
LINE
  5
232
330
18C
100
AcDbEntity
  8
0
  6
Continuous
 62
     7
370
    25
100
AcDbLine
 10
-362.0
 20
175.8
 30
0.0
 11
-360.0
 21
175.8
 31
0.0
  0
LINE
  5
233
330
18C
100
AcDbEntity
  8
0
  6
Continuous
 62
     7
370
    25
100
AcDbLine
 10
-337.0
 20
198.25
 30
0.0
 11
-337.0
 21
188.75
 31
0.0
  0
LINE
  5
234
330
18C
100
AcDbEntity
  8
0
  6
Continuous
 62
     7
370
    25
100
AcDbLine
 10
358.8
 20
209.0
 30
0.0
 11
357.0
 21
209.0
 31
0.0
  0
LINE
  5
235
330
18C
100
AcDbEntity
  8
0
  6
Continuous
 62
     7
370
    25
100
AcDbLine
 10
358.8
 20
177.0
 30
0.0
 11
358.8
 21
210.0
 31
0.0
  0
LINE
  5
236
330
18C
100
AcDbEntity
  8
0
  6
Continuous
 62
     7
370
    25
100
AcDbLine
 10
358.8
 20
178.0
 30
0.0
 11
357.0
 21
178.0
 31
0.0
  0
LINE
  5
237
330
18C
100
AcDbEntity
  8
0
  6
Continuous
 62
     7
370
    25
100
AcDbLine
 10
357.0
 20
226.0
 30
0.0
 11
357.0
 21
177.0
 31
0.0
  0
LINE
  5
238
330
18C
100
AcDbEntity
  8
0
  6
Continuous
 62
     7
370
    25
100
AcDbLine
 10
362.0
 20
174.0
 30
0.0
 11
360.0
 21
174.0
 31
0.0
  0
LINE
  5
239
330
18C
100
AcDbEntity
  8
0
  6
Continuous
 62
     7
370
    25
100
AcDbLine
 10
360.0
 20
175.8
 30
0.0
 11
362.0
 21
175.8
 31
0.0
  0
LINE
  5
23A
330
18C
100
AcDbEntity
  8
0
  6
Continuous
 62
     7
370
    25
100
AcDbLine
 10
362.0
 20
211.2
 30
0.0
 11
360.0
 21
211.2
 31
0.0
  0
LINE
  5
23B
330
18C
100
AcDbEntity
  8
0
  6
Continuous
 62
     7
370
    25
100
AcDbLine
 10
362.0
 20
213.0
 30
0.0
 11
360.0
 21
213.0
 31
0.0
  0
LINE
  5
23C
330
18C
100
AcDbEntity
  8
0
  6
Continuous
 62
     7
370
    25
100
AcDbLine
 10
337.0
 20
188.75
 30
0.0
 11
337.0
 21
198.25
 31
0.0
  0
LINE
  5
23D
330
18C
100
AcDbEntity
  8
0
  6
Continuous
 62
     7
370
    25
100
AcDbLine
 10
362.0
 20
186.0
 30
0.0
 11
358.8
 21
186.0
 31
0.0
  0
LINE
  5
23E
330
18C
100
AcDbEntity
  8
0
  6
Continuous
 62
     7
370
    25
100
AcDbLine
 10
355.1
 20
186.0
 30
0.0
 11
-355.1
 21
186.0
 31
0.0
  0
LINE
  5
23F
330
18C
100
AcDbEntity
  8
0
  6
Continuous
 62
     7
370
    25
100
AcDbLine
 10
-358.8
 20
186.0
 30
0.0
 11
-362.0
 21
186.0
 31
0.0
  0
LINE
  5
240
330
18C
100
AcDbEntity
  8
0
  6
Continuous
 62
     7
370
    25
100
AcDbLine
 10
-380.2
 20
-186.0
 30
0.0
 11
380.2
 21
-186.0
 31
0.0
  0
LINE
  5
241
330
18C
100
AcDbEntity
  8
0
  6
Continuous
 62
     7
370
    25
100
AcDbLine
 10
362.0
 20
226.0
 30
0.0
 11
380.2
 21
226.0
 31
0.0
  0
LINE
  5
242
330
18C
100
AcDbEntity
  8
0
  6
Continuous
 62
     7
370
    25
100
AcDbLine
 10
362.0
 20
226.0
 30
0.0
 11
362.0
 21
-186.0
 31
0.0
  0
LINE
  5
243
330
18C
100
AcDbEntity
  8
0
  6
Continuous
 62
     7
370
    25
100
AcDbLine
 10
380.2
 20
226.0
 30
0.0
 11
380.2
 21
-194.2
 31
0.0
  0
LINE
  5
244
330
18C
100
AcDbEntity
  8
0
  6
Continuous
 62
     7
370
    25
100
AcDbLine
 10
378.8
 20
-186.0
 30
0.0
 11
378.8
 21
-194.5
 31
0.0
  0
LINE
  5
245
330
18C
100
AcDbEntity
  8
0
  6
Continuous
 62
     7
370
    25
100
AcDbLine
 10
-370.2
 20
-204.5
 30
0.0
 11
368.8
 21
-204.5
 31
0.0
  0
LINE
  5
246
330
18C
100
AcDbEntity
  8
0
  6
Continuous
 62
     7
370
    25
100
AcDbLine
 10
355.1
 20
224.1
 30
0.0
 11
309.1
 21
224.1
 31
0.0
  0
LINE
  5
247
330
18C
100
AcDbEntity
  8
0
  6
Continuous
 62
     7
370
    25
100
AcDbLine
 10
309.1
 20
224.1
 30
0.0
 11
309.1
 21
226.0
 31
0.0
  0
LINE
  5
248
330
18C
100
AcDbEntity
  8
0
  6
Continuous
 62
     7
370
    25
100
AcDbLine
 10
357.0
 20
226.0
 30
0.0
 11
309.1
 21
226.0
 31
0.0
  0
LINE
  5
249
330
18C
100
AcDbEntity
  8
0
  6
Continuous
 62
     7
370
    25
100
AcDbLine
 10
355.1
 20
178.1
 30
0.0
 11
355.1
 21
224.1
 31
0.0
  0
LINE
  5
24A
330
18C
100
AcDbEntity
  8
0
  6
Continuous
 62
     7
370
    25
100
AcDbLine
 10
355.1
 20
178.1
 30
0.0
 11
357.0
 21
178.1
 31
0.0
  0
LINE
  5
24B
330
18C
100
AcDbEntity
  8
0
  6
Continuous
 62
     7
370
    25
100
AcDbLine
 10
340.2
 20
118.0
 30
0.0
 11
356.2
 21
118.0
 31
0.0
  0
LINE
  5
24C
330
18C
100
AcDbEntity
  8
0
  6
Continuous
 62
     7
370
    25
100
AcDbLine
 10
340.2
 20
98.0
 30
0.0
 11
356.2
 21
98.0
 31
0.0
  0
LINE
  5
24D
330
18C
100
AcDbEntity
  8
0
  6
Continuous
 62
     7
370
    25
100
AcDbLine
 10
346.2
 20
118.0
 30
0.0
 11
346.2
 21
124.0
 31
0.0
  0
LINE
  5
24E
330
18C
100
AcDbEntity
  8
0
  6
Continuous
 62
     7
370
    25
100
AcDbLine
 10
353.2
 20
124.0
 30
0.0
 11
319.2999687854
 21
124.0
 31
0.0
  0
LINE
  5
24F
330
18C
100
AcDbEntity
  8
0
  6
Continuous
 62
     7
370
    25
100
AcDbLine
 10
318.2
 20
-167.8
 30
0.0
 11
318.2
 21
124.0
 31
0.0
  0
LINE
  5
250
330
18C
100
AcDbEntity
  8
0
  6
Continuous
 62
     7
370
    25
100
AcDbLine
 10
319.2999687854
 20
124.0
 30
0.0
 11
319.2999687854
 21
125.5
 31
0.0
  0
LINE
  5
251
330
18C
100
AcDbEntity
  8
0
  6
Continuous
 62
     7
370
    25
100
AcDbLine
 10
300.2999687854
 20
125.5
 30
0.0
 11
300.2999687854
 21
124.0
 31
0.0
  0
LINE
  5
252
330
18C
100
AcDbEntity
  8
0
  6
Continuous
 62
     7
370
    25
100
AcDbLine
 10
319.2999687854
 20
125.5
 30
0.0
 11
300.2999687854
 21
125.5
 31
0.0
  0
LINE
  5
253
330
18C
100
AcDbEntity
  8
0
  6
Continuous
 62
     7
370
    25
100
AcDbLine
 10
339.2
 20
108.0
 30
0.0
 11
339.2
 21
-167.8
 31
0.0
  0
LINE
  5
254
330
18C
100
AcDbEntity
  8
0
  6
Continuous
 62
     7
370
    25
100
AcDbLine
 10
353.2
 20
124.0
 30
0.0
 11
353.2
 21
118.0
 31
0.0
  0
LINE
  5
255
330
18C
100
AcDbEntity
  8
0
  6
Continuous
 62
     7
370
    25
100
AcDbLine
 10
-338.8
 20
118.0
 30
0.0
 11
-354.8
 21
118.0
 31
0.0
  0
LINE
  5
256
330
18C
100
AcDbEntity
  8
0
  6
Continuous
 62
     7
370
    25
100
AcDbLine
 10
-338.8
 20
98.0
 30
0.0
 11
-354.8
 21
98.0
 31
0.0
  0
LINE
  5
257
330
18C
100
AcDbEntity
  8
0
  6
Continuous
 62
     7
370
    25
100
AcDbLine
 10
-344.8
 20
118.0
 30
0.0
 11
-344.8
 21
124.0
 31
0.0
  0
LINE
  5
258
330
18C
100
AcDbEntity
  8
0
  6
Continuous
 62
     7
370
    25
100
AcDbLine
 10
-351.8
 20
124.0
 30
0.0
 11
-317.8999687854
 21
124.0
 31
0.0
  0
LINE
  5
259
330
18C
100
AcDbEntity
  8
0
  6
Continuous
 62
     7
370
    25
100
AcDbLine
 10
-317.8999687854
 20
124.0
 30
0.0
 11
-317.8999687854
 21
125.5
 31
0.0
  0
LINE
  5
25A
330
18C
100
AcDbEntity
  8
0
  6
Continuous
 62
     7
370
    25
100
AcDbLine
 10
-317.8999687854
 20
125.5
 30
0.0
 11
-298.8999687854
 21
125.5
 31
0.0
  0
LINE
  5
25B
330
18C
100
AcDbEntity
  8
0
  6
Continuous
 62
     7
370
    25
100
AcDbLine
 10
-316.8
 20
-167.8
 30
0.0
 11
-316.8
 21
124.0
 31
0.0
  0
LINE
  5
25C
330
18C
100
AcDbEntity
  8
0
  6
Continuous
 62
     7
370
    25
100
AcDbLine
 10
-298.8999687854
 20
125.5
 30
0.0
 11
-298.8999687854
 21
124.0
 31
0.0
  0
LINE
  5
25D
330
18C
100
AcDbEntity
  8
0
  6
Continuous
 62
     7
370
    25
100
AcDbLine
 10
-337.8
 20
108.0
 30
0.0
 11
-337.8
 21
-167.8
 31
0.0
  0
LINE
  5
25E
330
18C
100
AcDbEntity
  8
0
  6
Continuous
 62
     7
370
    25
100
AcDbLine
 10
-351.8
 20
124.0
 30
0.0
 11
-351.8
 21
118.0
 31
0.0
  0
LINE
  5
25F
330
18C
100
AcDbEntity
  8
0
  6
Continuous
 62
     7
370
    25
100
AcDbLine
 10
218.2
 20
108.0
 30
0.0
 11
218.2
 21
124.0
 31
0.0
  0
LINE
  5
260
330
18C
100
AcDbEntity
  8
0
  6
Continuous
 62
     7
370
    25
100
AcDbLine
 10
340.2
 20
108.0
 30
0.0
 11
-338.8
 21
108.0
 31
0.0
  0
LINE
  5
261
330
18C
100
AcDbEntity
  8
0
  6
Continuous
 62
     7
370
    25
100
AcDbLine
 10
108.2
 20
108.0
 30
0.0
 11
108.2
 21
124.0
 31
0.0
  0
LINE
  5
262
330
18C
100
AcDbEntity
  8
0
  6
Continuous
 62
     7
370
    25
100
AcDbLine
 10
318.2
 20
124.0
 30
0.0
 11
-316.8
 21
124.0
 31
0.0
  0
LINE
  5
263
330
18C
100
AcDbEntity
  8
0
  6
Continuous
 62
     7
370
    25
100
AcDbLine
 10
-216.8
 20
108.0
 30
0.0
 11
-216.8
 21
124.0
 31
0.0
  0
LINE
  5
264
330
18C
100
AcDbEntity
  8
0
  6
Continuous
 62
     7
370
    25
100
AcDbLine
 10
-106.8
 20
108.0
 30
0.0
 11
-106.8
 21
124.0
 31
0.0
  0
LINE
  5
265
330
18C
100
AcDbEntity
  8
0
  6
Continuous
 62
     7
370
    25
100
AcDbLine
 10
38.2
 20
108.0
 30
0.0
 11
38.2
 21
124.0
 31
0.0
  0
LINE
  5
266
330
18C
100
AcDbEntity
  8
0
  6
Continuous
 62
     7
370
    25
100
AcDbLine
 10
-36.8
 20
108.0
 30
0.0
 11
-36.8
 21
124.0
 31
0.0
  0
LINE
  5
267
330
18C
100
AcDbEntity
  8
0
  6
Continuous
 62
     7
370
    25
100
AcDbLine
 10
362.0
 20
-167.8
 30
0.0
 11
-362.0
 21
-167.8
 31
0.0
  0
LINE
  5
268
330
18C
100
AcDbEntity
  8
0
  6
Continuous
 62
     8
370
    25
100
AcDbLine
 10
332.8851814027
 20
108.0
 30
0.0
 11
332.8851814027
 21
-167.8
 31
0.0
  0
LINE
  5
269
330
18C
100
AcDbEntity
  8
0
  6
Continuous
 62
     8
370
    25
100
AcDbLine
 10
319.9618721488
 20
108.0
 30
0.0
 11
319.9618721488
 21
-167.8
 31
0.0
  0
LINE
  5
26A
330
18C
100
AcDbEntity
  8
0
  6
Continuous
 62
     8
370
    25
100
AcDbLine
 10
-331.4851814027
 20
108.0
 30
0.0
 11
-331.4851814027
 21
-167.8
 31
0.0
  0
LINE
  5
26B
330
18C
100
AcDbEntity
  8
0
  6
Continuous
 62
     8
370
    25
100
AcDbLine
 10
-318.5618721488
 20
108.0
 30
0.0
 11
-318.5618721488
 21
-167.8
 31
0.0
  0
ARC
  5
26C
330
18C
100
AcDbEntity
  8
0
  6
Continuous
 62
     7
370
    25
100
AcDbCircle
 10
-360.0
 20
210.0
 30
0.0
 40
1.199999999999989
100
AcDbArc
 50
0.0
 51
90.0
  0
ARC
  5
26D
330
18C
100
AcDbEntity
  8
0
  6
Continuous
 62
     7
370
    25
100
AcDbCircle
 10
-360.0
 20
210.0
 30
0.0
 40
3.0
100
AcDbArc
 50
0.0
 51
90.0
  0
ARC
  5
26E
330
18C
100
AcDbEntity
  8
0
  6
Continuous
 62
     7
370
    25
100
AcDbCircle
 10
-360.0
 20
177.0
 30
0.0
 40
3.0
100
AcDbArc
 50
270.0
 51
0.0
  0
ARC
  5
26F
330
18C
100
AcDbEntity
  8
0
  6
Continuous
 62
     7
370
    25
100
AcDbCircle
 10
-360.0
 20
177.0
 30
0.0
 40
1.199999999999875
100
AcDbArc
 50
270.0
 51
0.0
  0
ARC
  5
270
330
18C
100
AcDbEntity
  8
0
  6
Continuous
 62
     7
370
    25
100
AcDbCircle
 10
360.0
 20
177.0
 30
0.0
 40
3.0
100
AcDbArc
 50
180.0
 51
270.0
  0
ARC
  5
271
330
18C
100
AcDbEntity
  8
0
  6
Continuous
 62
     7
370
    25
100
AcDbCircle
 10
360.0
 20
177.0
 30
0.0
 40
1.200000000000045
100
AcDbArc
 50
180.0
 51
270.0
  0
ARC
  5
272
330
18C
100
AcDbEntity
  8
0
  6
Continuous
 62
     7
370
    25
100
AcDbCircle
 10
360.0
 20
210.0
 30
0.0
 40
3.0
100
AcDbArc
 50
90.0
 51
180.0
  0
ARC
  5
273
330
18C
100
AcDbEntity
  8
0
  6
Continuous
 62
     7
370
    25
100
AcDbCircle
 10
360.0
 20
210.0
 30
0.0
 40
1.199999999999932
100
AcDbArc
 50
90.0
 51
180.0
  0
ARC
  5
274
330
18C
100
AcDbEntity
  8
0
  6
Continuous
 62
     7
370
    25
100
AcDbCircle
 10
368.8
 20
-194.5
 30
0.0
 40
9.99999999999983
100
AcDbArc
 50
270.0
 51
0.0
  0
ARC
  5
275
330
18C
100
AcDbEntity
  8
0
  6
Continuous
 62
     7
370
    25
100
AcDbCircle
 10
-370.2
 20
-194.5
 30
0.0
 40
10.00000000000028
100
AcDbArc
 50
180.0
 51
270.0
  0
ARC
  5
276
330
18C
100
AcDbEntity
  8
0
  6
Continuous
 62
     7
370
    25
100
AcDbCircle
 10
370.2
 20
-194.2
 30
0.0
 40
10.00000000000017
100
AcDbArc
 50
277.9894915269
 51
0.0
  0
VIEWPORT
  5
3EF
330
18C
100
AcDbEntity
  8
0
100
AcDbViewport
 10
0.0
 20
0.0
 30
0.0
 40
205.6
 41
156.0
 68
     1
 69
     1
 12
0.0
 22
200.0
 13
0.0
 23
0.0
 14
10.0
 24
10.0
 15
10.0
 25
10.0
 16
0.0
 26
0.0
 36
1.0
 17
0.0
 27
0.0
 37
0.0
 42
50.0
 43
0.0
 44
0.0
 45
588.4963424125
 50
0.0
 51
0.0
 72
   100
 90
   557152
  1

281
     0
 71
     1
 74
     0
110
0.0
120
0.0
130
0.0
111
1.0
121
0.0
131
0.0
112
0.0
122
1.0
132
0.0
 79
     0
146
0.0
  0
ENDBLK
  5
18F
330
18C
100
AcDbEntity
  8
0
100
AcDbBlockEnd
  0
BLOCK
  5
279
330
277
100
AcDbEntity
  8
0
100
AcDbBlockBegin
  2
*Paper_Space2
 70
     0
 10
0.0
 20
0.0
 30
0.0
  3
*Paper_Space2
  1

  0
LWPOLYLINE
  5
28E
330
277
100
AcDbEntity
  8
0
  6
Continuous
 62
     7
370
    25
100
AcDbPolyline
 90
       10
 70
   128
 43
0.0
 10
-70.7106781187
 20
408.9131042273
 10
-69.9851438307
 20
408.6419925074
 10
-69.3471196856
 20
408.6990414803
 10
-68.8735608116
 20
409.0773701981
 10
-68.6215853977
 20
409.7313466338
 10
-68.6215853977
 20
410.5820915777
 10
-68.8735608116
 20
411.5269926338
 10
-69.3471196856
 20
412.4520807895
 10
-69.9851438307
 20
413.2457767604
 10
-70.7106781187
 20
413.8123490986
  0
LWPOLYLINE
  5
290
330
277
100
AcDbEntity
  8
0
  6
Continuous
 62
     7
370
    25
100
AcDbPolyline
 90
       10
 70
   128
 43
0.0
 10
-82.0243866176
 20
420.3436139932
 10
-82.7499209056
 20
420.6147257132
 10
-83.3879450507
 20
420.5576767402
 10
-83.8615039247
 20
420.1793480224
 10
-84.1134793386
 20
419.5253715867
 10
-84.1134793386
 20
418.6746266429
 10
-83.8615039247
 20
417.7297255868
 10
-83.3879450507
 20
416.8046374311
 10
-82.7499209056
 20
416.0109414602
 10
-82.0243866176
 20
415.4443691219
  0
LWPOLYLINE
  5
292
330
277
100
AcDbEntity
  8
0
  6
Continuous
 62
     7
370
    25
100
AcDbPolyline
 90
       10
 70
   128
 43
0.0
 10
-78.4888527117
 20
437.8995731989
 10
-78.3609214413
 20
436.987899832
 10
-77.9925580294
 20
436.0384814272
 10
-77.4281925399
 20
435.1658318561
 10
-76.7358957801
 20
434.4752055359
 10
-75.9991689562
 20
434.0499021933
 10
-75.3068721964
 20
433.9412196884
 10
-74.7425067069
 20
434.1622667351
 10
-74.374143295
 20
434.6863817973
 10
-74.2462120246
 20
435.4503488635
  0
LWPOLYLINE
  5
294
330
277
100
AcDbEntity
  8
0
  6
Continuous
 62
     7
370
    25
100
AcDbPolyline
 90
       10
 70
   128
 43
0.0
 10
-74.2462120246
 20
443.6157569823
 10
-74.374143295
 20
444.5274303492
 10
-74.7425067069
 20
445.476848754
 10
-75.3068721964
 20
446.3494983251
 10
-75.9991689562
 20
447.0401246454
 10
-76.7358957801
 20
447.4654279879
 10
-77.4281925399
 20
447.5741104929
 10
-77.9925580294
 20
447.3530634462
 10
-78.3609214413
 20
446.8289483839
 10
-78.4888527117
 20
446.0649813178
  0
LWPOLYLINE
  5
296
330
277
100
AcDbEntity
  8
0
  6
Continuous
 62
     7
370
    25
100
AcDbPolyline
 90
       10
 70
   128
 43
0.0
 10
-70.7106781187
 20
461.171716188
 10
-69.9851438307
 20
460.9006044681
 10
-69.3471196856
 20
460.957653441
 10
-68.8735608116
 20
461.3359821588
 10
-68.6215853977
 20
461.9899585945
 10
-68.6215853977
 20
462.8407035384
 10
-68.8735608116
 20
463.7856045945
 10
-69.3471196856
 20
464.7106927502
 10
-69.9851438307
 20
465.504388721
 10
-70.7106781187
 20
466.0709610593
  0
LWPOLYLINE
  5
298
330
277
100
AcDbEntity
  8
0
  6
Continuous
 62
     7
370
    25
100
AcDbPolyline
 90
       10
 70
   128
 43
0.0
 10
-82.0243866176
 20
472.6022259539
 10
-82.7499209056
 20
472.8733376739
 10
-83.3879450507
 20
472.8162887009
 10
-83.8615039247
 20
472.4379599831
 10
-84.1134793386
 20
471.7839835474
 10
-84.1134793386
 20
470.9332386036
 10
-83.8615039247
 20
469.9883375475
 10
-83.3879450507
 20
469.0632493918
 10
-82.7499209056
 20
468.2695534209
 10
-82.0243866176
 20
467.7029810826
  0
LWPOLYLINE
  5
29D
330
277
100
AcDbEntity
  8
0
  6
Continuous
 62
     7
370
    25
100
AcDbPolyline
 90
       12
 70
   128
 43
0.0
 10
-115.9655121146
 20
416.2621042344
 10
-115.8222981494
 20
415.1945492432
 10
-115.4042585975
 20
414.378832533
 10
-114.7452605372
 20
413.8810386205
 10
-113.8986920722
 20
413.7414958079
 10
-112.9331371447
 20
413.971509024
 10
-111.9268192726
 20
414.552443966
 10
-110.9612643452
 20
415.4372367399
 10
-110.1146958801
 20
416.5542066971
 10
-109.4556978199
 20
417.8128635746
 10
-109.0376582679
 20
419.1112384777
 10
-108.8944443027
 20
420.3441447935
  0
LWPOLYLINE
  5
2A0
330
277
100
AcDbEntity
  8
0
  6
Continuous
 62
     7
370
    25
100
AcDbPolyline
 90
       12
 70
   128
 43
0.0
 10
-108.8944443027
 20
461.1711853878
 10
-109.0376582679
 20
462.2387403789
 10
-109.4556978199
 20
463.0544570891
 10
-110.1146958801
 20
463.5522510016
 10
-110.9612643452
 20
463.6917938142
 10
-111.9268192726
 20
463.4617805981
 10
-112.9331371447
 20
462.8808456561
 10
-113.8986920722
 20
461.9960528823
 10
-114.7452605372
 20
460.8790829251
 10
-115.4042585975
 20
459.6204260476
 10
-115.8222981494
 20
458.3220511445
 10
-115.9655121146
 20
457.0891448287
  0
LWPOLYLINE
  5
2AC
330
277
100
AcDbEntity
  8
0
  6
Continuous
 62
     7
370
    25
100
AcDbPolyline
 90
        3
 70
   128
 43
0.0
 10
-110.237947187
 20
461.946773094
 10
-110.3811611522
 20
463.0143280852
 10
-110.6938507383
 20
463.6889795149
  0
LWPOLYLINE
  5
2BC
330
277
100
AcDbEntity
  8
0
  6
Continuous
 62
     7
370
    25
100
AcDbPolyline
 90
        9
 70
   128
 43
0.0
 10
-115.5096085633
 20
414.5198978134
 10
-115.2421949564
 20
414.5170835142
 10
-114.2766400289
 20
414.7470967303
 10
-113.2703221569
 20
415.3280316723
 10
-112.3047672294
 20
416.2128244461
 10
-111.4581987644
 20
417.3297944033
 10
-110.7992007041
 20
418.5884512808
 10
-110.3811611522
 20
419.8868261839
 10
-110.237947187
 20
421.1197324997
  0
LWPOLYLINE
  5
2DF
330
277
100
AcDbEntity
  8
0
  6
Continuous
 62
     7
370
    25
100
AcDbPolyline
 90
        8
 70
   128
 43
0.0
 10
-117.5967303634
 20
439.8166463402
 10
-118.0666592888
 20
439.0637455726
 10
-118.5941496035
 20
437.8962964588
 10
-118.9004644633
 20
436.7241888828
 10
-118.9628858963
 20
435.6343527015
 10
-118.7767843905
 20
434.7076160788
 10
-118.355962243
 20
434.0127108304
 10
-117.986765714
 20
433.7197525851
  0
LWPOLYLINE
  5
2ED
330
277
100
AcDbEntity
  8
0
  6
Continuous
 62
     7
370
    25
100
AcDbPolyline
 90
       24
 70
   128
 43
0.0
 10
-101.4698231003
 20
425.7908347067
 10
-100.5636412497
 20
426.4577902083
 10
-99.7246667616
 20
427.3629363803
 10
-99.0151225355
 20
428.4391426719
 10
-98.4876322207
 20
429.6065917857
 10
-98.1813173609
 20
430.7786993617
 10
-98.1188959279
 20
431.868535543
 10
-98.3049974338
 20
432.7952721657
 10
-98.7258195812
 20
433.4901774141
 10
-99.3501519167
 20
433.9017133448
 10
-100.131690567
 20
433.9993582205
 10
-101.0124723858
 20
433.7758701676
 10
-101.9271738148
 20
433.2478242724
 10
-102.8079556335
 20
432.4543832834
 10
-103.5894942838
 20
431.454393089
 10
-104.2138266193
 20
430.3220183872
 10
-104.6346487667
 20
429.1412422294
 10
-104.8207502726
 20
427.9996373816
 10
-104.7583288396
 20
426.9818714528
 10
-104.4520139798
 20
426.163427486
 10
-103.9245236651
 20
425.6050057261
 10
-103.214979439
 20
425.3480217603
 10
-102.3760049508
 20
425.4115349139
 10
-101.4698231003
 20
425.7908347067
  0
LWPOLYLINE
  5
2F9
330
277
100
AcDbEntity
  8
0
  6
Continuous
 62
     7
370
    25
100
AcDbPolyline
 90
        9
 70
   128
 43
0.0
 10
-406.3742671479
 20
397.9288434717
 10
-407.6178954591
 20
397.0540415998
 10
-408.5419946612
 20
396.0559873438
 10
-409.1110521401
 20
394.973035369
 10
-409.303199336
 20
393.8468029126
 10
-409.1110521401
 20
392.7205704561
 10
-408.5419946612
 20
391.6376184813
 10
-407.6178954591
 20
390.6395642253
 10
-406.3742671479
 20
389.7647623534
  0
LWPOLYLINE
  5
30A
330
277
100
AcDbEntity
  8
0
  6
Continuous
 62
     7
370
    25
100
AcDbPolyline
 90
       10
 70
   128
 43
0.0
 10
-178.4279639908
 20
352.8820044119
 10
-177.9670399909
 20
353.0642226309
 10
-177.1121453824
 20
353.0822286714
 10
-176.1694405255
 20
352.7642305835
 10
-175.2088415267
 20
352.1338128307
 10
-174.3015916194
 20
351.2377306136
 10
-173.5149773788
 20
350.142442251
 10
-172.9073383846
 20
348.9291802701
 10
-172.5237404412
 20
347.6879267618
 10
-172.3926332533
 20
346.5107398204
  0
LWPOLYLINE
  5
318
330
277
100
AcDbEntity
  8
0
  6
Continuous
 62
     7
370
    25
100
AcDbPolyline
 90
       17
 70
   128
 43
0.0
 10
-170.2713129097
 20
345.2861276527
 10
-170.4035670185
 20
346.7667334268
 10
-170.7941452897
 20
348.3308050643
 10
-171.4247847175
 20
349.9052083136
 10
-172.2659973031
 20
351.4163258288
 10
-173.2784488809
 20
352.7934994341
 10
-174.4147983405
 20
353.9723340226
 10
-175.6219112441
 20
354.897708599
 10
-176.8433443339
 20
355.5263536766
 10
-178.0219847561
 20
355.8288745102
 10
-179.1027205947
 20
355.791125562
 10
-180.0350178428
 20
355.4148719307
 10
-180.7752833174
 20
354.7177068181
 10
-181.2889030277
 20
353.7322288898
 10
-181.5518606867
 20
352.5045179986
 10
-181.5518606867
 20
351.0919805413
 10
-181.5507167266
 20
351.0792776296
  0
LWPOLYLINE
  5
319
330
277
100
AcDbEntity
  8
0
  6
Continuous
 62
     7
370
    25
100
AcDbPolyline
 90
        9
 70
   128
 43
0.0
 10
-176.5511230635
 20
342.4187890058
 10
-175.6219112441
 20
341.8522160479
 10
-174.4147983405
 20
341.3838877317
 10
-173.2784488809
 20
341.2507211608
 10
-172.2659973031
 20
341.4589430562
 10
-171.4247847175
 20
341.9988171935
 10
-170.7941452897
 20
342.845099658
 10
-170.4035670185
 20
343.9582192223
 10
-170.2713129097
 20
345.2861276527
  0
LWPOLYLINE
  5
31A
330
277
100
AcDbEntity
  8
0
  6
Continuous
 62
     7
370
    25
100
AcDbPolyline
 90
       16
 70
   128
 43
0.0
 10
-157.6781123542
 20
349.8534154873
 10
-156.9518527071
 20
350.5326570927
 10
-156.4419808191
 20
351.4886707009
 10
-156.1713196015
 20
352.6786631823
 10
-156.1519844057
 20
354.0493680326
 10
-156.3848407145
 20
355.5394296915
 10
-156.8594654021
 20
357.0821499431
 10
-157.554613294
 20
358.6084734649
 10
-158.4391681448
 20
360.0500788856
 10
-159.4735354653
 20
361.34243699
 10
-160.6114148526
 20
362.4276991787
 10
-161.8018724918
 20
363.2572868903
 10
-162.9916210573
 20
363.7940660774
 10
-164.1274049632
 20
364.0140094027
 10
-165.1583841924
 20
363.9072717519
 10
-165.785706466
 20
363.6442321173
  0
LWPOLYLINE
  5
31E
330
277
100
AcDbEntity
  8
0
  6
Continuous
 62
     7
370
    25
100
AcDbPolyline
 90
       19
 70
   128
 43
0.0
 10
0.8485281374
 20
205.2641081213
 10
-2.2586106473
 20
211.5935805106
 10
-5.5638875007
 20
217.8466585163
 10
-9.0585323574
 20
224.0067505173
 10
-12.7332726922
 20
230.0575116169
 10
-16.5783581231
 20
235.982887012
 10
-20.5835862823
 20
241.7671545919
 10
-24.7383298869
 20
247.3949666548
 10
-29.031564937
 20
252.8513906305
 10
-33.4518999658
 20
258.1219487019
 10
-37.9876062655
 20
263.1926562195
 10
-42.6266490077
 20
268.0500588081
 10
-47.356719176
 20
272.6812680654
 10
-52.1652662259
 20
277.0739957601
 10
-57.0395313864
 20
281.2165864364
 10
-61.9665815129
 20
285.0980483401
 10
-66.9333434038
 20
288.708082584
 10
-71.9266384881
 20
292.0371104741
 10
-76.9332177931
 20
295.0762989253
  0
LWPOLYLINE
  5
31F
330
277
100
AcDbEntity
  8
0
  6
Continuous
 62
     7
370
    25
100
AcDbPolyline
 90
       15
 70
   128
 43
0.0
 10
50.3460028205
 20
148.1108957915
 10
46.2508940408
 20
150.6316186305
 10
42.1737444463
 20
153.4546205084
 10
38.132434462
 20
156.5675210914
 10
34.1446873373
 20
159.9566686889
 10
30.2279914207
 20
163.607200123
 10
26.3995234642
 20
167.5031059119
 10
22.676073294
 20
171.6273004791
 10
19.0739701788
 20
175.9616970831
 10
15.6090112173
 20
180.4872871368
 10
12.2963920594
 20
185.1842235704
 10
9.1506402658
 20
190.0319078708
 10
6.1855515968
 20
195.0090804171
 10
3.4141295108
 20
200.0939137149
 10
0.8485281374
 20
205.2641081213
  0
LWPOLYLINE
  5
321
330
277
100
AcDbEntity
  8
0
  6
Continuous
 62
     7
370
    25
100
AcDbPolyline
 90
       10
 70
   128
 43
0.0
 10
135.5799237013
 20
109.3452122327
 10
134.6510440511
 20
109.2404725379
 10
131.0489409359
 20
109.064975666
 10
127.3254907658
 20
109.2397851584
 10
123.4970228092
 20
109.7641343844
 10
119.5803268926
 20
110.6357237994
 10
115.592579768
 20
111.85073103
 10
111.5512697836
 20
113.4038276363
 10
107.4741201892
 20
115.2882024808
 10
103.3790114095
 20
117.4955915982
  0
LWPOLYLINE
  5
324
330
277
100
AcDbEntity
  8
0
  6
Continuous
 62
     7
370
    25
100
AcDbPolyline
 90
       10
 70
   128
 43
0.0
 10
146.8936322003
 20
115.8764771273
 10
145.9647525501
 20
115.7717374324
 10
142.3626494349
 20
115.5962405606
 10
138.6391992648
 20
115.771050053
 10
134.8107313082
 20
116.2953992789
 10
130.8940353916
 20
117.166988694
 10
126.9062882669
 20
118.3819959245
 10
122.8649782826
 20
119.9350925309
 10
118.7878286882
 20
121.8194673754
 10
114.6927199085
 20
124.0268564927
  0
LWPOLYLINE
  5
328
330
277
100
AcDbEntity
  8
0
  6
Continuous
 62
     7
370
    25
100
AcDbPolyline
 90
       15
 70
   128
 43
0.0
 10
61.6597113195
 20
154.6421606861
 10
57.5646025398
 20
157.1628835251
 10
53.4874529453
 20
159.985885403
 10
49.446142961
 20
163.098785986
 10
45.4583958363
 20
166.4879335835
 10
41.5416999197
 20
170.1384650176
 10
37.7132319632
 20
174.0343708065
 10
33.989781793
 20
178.1585653737
 10
30.3876786778
 20
182.4929619777
 10
26.9227197163
 20
187.0185520314
 10
23.6101005584
 20
191.715488465
 10
20.4643487647
 20
196.5631727654
 10
17.4992600958
 20
201.5403453117
 10
14.7278380098
 20
206.6251786094
 10
12.1622366364
 20
211.7953730159
  0
LWPOLYLINE
  5
32A
330
277
100
AcDbEntity
  8
0
  6
Continuous
 62
     7
370
    25
100
AcDbPolyline
 90
       19
 70
   128
 43
0.0
 10
12.1622366364
 20
211.7953730159
 10
9.0550978517
 20
218.1248454052
 10
5.7498209983
 20
224.3779234109
 10
2.2551761416
 20
230.5380154119
 10
-1.4195641933
 20
236.5887765115
 10
-5.2646496241
 20
242.5141519066
 10
-9.2698777833
 20
248.2984194865
 10
-13.424621388
 20
253.9262315494
 10
-17.717856438
 20
259.3826555251
 10
-22.1381914668
 20
264.6532135964
 10
-26.6738977665
 20
269.7239211141
 10
-31.3129405087
 20
274.5813237026
 10
-36.043010677
 20
279.21253296
 10
-40.8515577269
 20
283.6052606547
 10
-45.7258228874
 20
287.747851331
 10
-50.6528730139
 20
291.6293132347
 10
-55.6196349048
 20
295.2393474786
 10
-60.6129299892
 20
298.5683753687
 10
-65.6195092941
 20
301.6075638199
  0
LWPOLYLINE
  5
339
330
277
100
AcDbEntity
  8
0
  6
Continuous
 62
     7
370
    25
100
AcDbPolyline
 90
       22
 70
   128
 43
0.0
 10
-84.8528137424
 20
131.3188979003
 10
-90.1128281333
 20
131.4378356965
 10
-95.4806708137
 20
131.893848626
 10
-100.9455800007
 20
132.6860224457
 10
-106.4965993063
 20
133.8127689568
 10
-112.1225997039
 20
135.271829188
 10
-117.81230184
 20
137.0602779252
 10
-123.5542986481
 20
139.1745295758
 10
-129.3370782177
 20
141.6103453575
 10
-135.1490468751
 20
144.362841796
 10
-140.9785524259
 20
147.4265005163
 10
-146.813907517
 20
150.7951793061
 10
-152.6434130679
 20
154.4621244298
 10
-158.4553817252
 20
158.4199841691
 10
-164.2381612949
 20
162.660823562
 10
-169.9801581029
 20
167.1761403116
 10
-175.669860239
 20
171.9568818316
 10
-181.2958606366
 20
176.9934633958
 10
-186.8468799423
 20
182.2757873542
 10
-192.3117891292
 20
187.793263377
 10
-197.6796318096
 20
193.5348296871
 10
-202.9396462005
 20
199.4889752375
  0
LWPOLYLINE
  5
33C
330
277
100
AcDbEntity
  8
0
  6
Continuous
 62
     7
370
    25
100
AcDbPolyline
 90
       20
 70
   128
 43
0.0
 10
-80.5210371596
 20
139.1066705474
 10
-82.6113273961
 20
139.3231624436
 10
-88.0762365831
 20
140.1153362633
 10
-93.6272558887
 20
141.2420827743
 10
-99.2532562863
 20
142.7011430055
 10
-104.9429584225
 20
144.4895917428
 10
-110.6849552305
 20
146.6038433934
 10
-116.4677348002
 20
149.039659175
 10
-122.2797034575
 20
151.7921556136
 10
-128.1092090083
 20
154.8558143339
 10
-133.9445640994
 20
158.2244931237
 10
-139.7740696503
 20
161.8914382474
 10
-145.5860383076
 20
165.8492979867
 10
-151.3688178773
 20
170.0901373796
 10
-157.1108146853
 20
174.6054541292
 10
-162.8005168214
 20
179.3861956492
 10
-168.426517219
 20
184.4227772134
 10
-173.9775365247
 20
189.7051011718
 10
-179.4424457116
 20
195.2225771946
 10
-181.5327359481
 20
197.4194830349
  0
LWPOLYLINE
  5
33D
330
277
100
AcDbEntity
  8
0
  6
Continuous
 62
     7
370
    25
100
AcDbPolyline
 90
        9
 70
   128
 43
0.0
 10
-405.1721856199
 20
324.3994163464
 10
-406.4158139311
 20
323.5246144745
 10
-407.3399131331
 20
322.5265602185
 10
-407.9089706121
 20
321.4436082437
 10
-408.101117808
 20
320.3173757873
 10
-407.9089706121
 20
319.1911433308
 10
-407.3399131331
 20
318.108191356
 10
-406.4158139311
 20
317.1101371
 10
-405.1721856199
 20
316.2353352282
  0
LINE
  5
343
330
277
100
AcDbEntity
  8
0
  6
Continuous
 62
     7
370
    25
100
AcDbLine
 10
-103.066017178
 20
407.2527374506
 30
0.0
 11
-103.066017178
 21
407.3780079157
 31
0.0
  0
LINE
  5
344
330
277
100
AcDbEntity
  8
0
  6
Continuous
 62
     7
370
    25
100
AcDbLine
 10
-103.066017178
 20
482.4178563978
 30
0.0
 11
-103.066017178
 21
484.3341900927
 31
0.0
  0
LINE
  5
345
330
277
100
AcDbEntity
  8
0
  6
Continuous
 62
     7
370
    25
100
AcDbLine
 10
-117.986765714
 20
433.7197525851
 30
0.0
 11
-103.8446300903
 21
425.5556714668
 31
0.0
  0
LINE
  5
346
330
277
100
AcDbEntity
  8
0
  6
Continuous
 62
     7
370
    25
100
AcDbLine
 10
-99.0950161103
 20
433.7831356595
 30
0.0
 11
-113.237151734
 21
441.9472167777
 31
0.0
  0
LINE
  5
347
330
277
100
AcDbEntity
  8
0
  6
Continuous
 62
     7
370
    25
100
AcDbLine
 10
-409.303199336
 20
393.8468029126
 30
0.0
 11
-409.303199336
 21
331.2997767221
 31
0.0
  0
LINE
  5
348
330
277
100
AcDbEntity
  8
0
  6
Continuous
 62
     7
370
    25
100
AcDbLine
 10
-178.4279639908
 20
352.8820044119
 30
0.0
 11
-247.3747734856
 21
313.0798585031
 31
0.0
  0
LINE
  5
349
330
277
100
AcDbEntity
  8
0
  6
Continuous
 62
     7
370
    25
100
AcDbLine
 10
-237.3739607459
 20
307.3065121976
 30
0.0
 11
-173.4283703276
 21
344.2215157881
 31
0.0
  0
LINE
  5
34A
330
277
100
AcDbEntity
  8
0
  6
Continuous
 62
     7
370
    25
100
AcDbLine
 10
-165.785706466
 20
363.6442321173
 30
0.0
 11
-179.9278420898
 21
355.4801509991
 31
0.0
  0
LINE
  5
34B
330
277
100
AcDbEntity
  8
0
  6
Continuous
 62
     7
370
    25
100
AcDbLine
 10
-171.9284922287
 20
341.623369201
 30
0.0
 11
-164.8574244168
 21
345.7054097601
 31
0.0
  0
LINE
  5
34C
330
277
100
AcDbEntity
  8
0
  6
Continuous
 62
     7
370
    25
100
AcDbLine
 10
-408.101117808
 20
320.3173757873
 30
0.0
 11
-408.101117808
 21
71.2724281621
 31
0.0
  0
LINE
  5
34D
330
277
100
AcDbEntity
  8
0
  6
Continuous
 62
     7
370
    25
100
AcDbLine
 10
-60.1040764009
 20
468.1133083395
 30
0.0
 11
-58.7605735166
 21
468.8888960458
 31
0.0
  0
LINE
  5
34E
330
277
100
AcDbEntity
  8
0
  6
Continuous
 62
     7
370
    25
100
AcDbLine
 10
-60.1040764009
 20
468.1133083395
 30
0.0
 11
-92.6309883354
 21
486.8906949114
 31
0.0
  0
LINE
  5
34F
330
277
100
AcDbEntity
  8
0
  6
Continuous
 62
     7
370
    25
100
AcDbLine
 10
-125.15790027
 20
468.1133083395
 30
0.0
 11
-92.6309883354
 21
486.8906949114
 31
0.0
  0
LINE
  5
350
330
277
100
AcDbEntity
  8
0
  6
Continuous
 62
     7
370
    25
100
AcDbLine
 10
-126.5014031543
 20
468.8888960458
 30
0.0
 11
-125.15790027
 21
468.1133083395
 31
0.0
  0
LINE
  5
351
330
277
100
AcDbEntity
  8
0
  6
Continuous
 62
     7
370
    25
100
AcDbLine
 10
-126.5014031543
 20
468.8888960458
 30
0.0
 11
-92.6309883354
 21
488.4418703239
 31
0.0
  0
LINE
  5
352
330
277
100
AcDbEntity
  8
0
  6
Continuous
 62
     7
370
    25
100
AcDbLine
 10
-58.7605735166
 20
468.8888960458
 30
0.0
 11
-92.6309883354
 21
488.4418703239
 31
0.0
  0
LINE
  5
353
330
277
100
AcDbEntity
  8
0
  6
Continuous
 62
     7
370
    25
100
AcDbLine
 10
-60.1040764009
 20
394.6246352698
 30
0.0
 11
-60.1040764009
 21
468.1133083395
 31
0.0
  0
LINE
  5
354
330
277
100
AcDbEntity
  8
0
  6
Continuous
 62
     7
370
    25
100
AcDbLine
 10
-92.6309883354
 20
413.4020218417
 30
0.0
 11
-60.1040764009
 21
394.6246352698
 31
0.0
  0
LINE
  5
355
330
277
100
AcDbEntity
  8
0
  6
Continuous
 62
     7
370
    25
100
AcDbLine
 10
-92.6309883354
 20
486.8906949114
 30
0.0
 11
-92.6309883354
 21
413.4020218417
 31
0.0
  0
LINE
  5
356
330
277
100
AcDbEntity
  8
0
  6
Continuous
 62
     7
370
    25
100
AcDbLine
 10
-70.7106781187
 20
413.8123490986
 30
0.0
 11
-82.0243866176
 21
420.3436139932
 31
0.0
  0
LINE
  5
357
330
277
100
AcDbEntity
  8
0
  6
Continuous
 62
     7
370
    25
100
AcDbLine
 10
-82.0243866176
 20
415.4443691219
 30
0.0
 11
-70.7106781187
 21
408.9131042273
 31
0.0
  0
LINE
  5
358
330
277
100
AcDbEntity
  8
0
  6
Continuous
 62
     7
370
    25
100
AcDbLine
 10
-74.2462120246
 20
435.4503488635
 30
0.0
 11
-74.2462120246
 21
443.6157569823
 31
0.0
  0
LINE
  5
359
330
277
100
AcDbEntity
  8
0
  6
Continuous
 62
     7
370
    25
100
AcDbLine
 10
-78.4888527117
 20
446.0649813178
 30
0.0
 11
-78.4888527117
 21
437.8995731989
 31
0.0
  0
LINE
  5
35A
330
277
100
AcDbEntity
  8
0
  6
Continuous
 62
     7
370
    25
100
AcDbLine
 10
-70.7106781187
 20
466.0709610593
 30
0.0
 11
-82.0243866176
 21
472.6022259539
 31
0.0
  0
LINE
  5
35B
330
277
100
AcDbEntity
  8
0
  6
Continuous
 62
     7
370
    25
100
AcDbLine
 10
-82.0243866176
 20
467.7029810826
 30
0.0
 11
-70.7106781187
 21
461.171716188
 31
0.0
  0
LINE
  5
35C
330
277
100
AcDbEntity
  8
0
  6
Continuous
 62
     7
370
    25
100
AcDbLine
 10
-60.1040764009
 20
394.6246352698
 30
0.0
 11
-58.7605735166
 21
395.400222976
 31
0.0
  0
LINE
  5
35D
330
277
100
AcDbEntity
  8
0
  6
Continuous
 62
     7
370
    25
100
AcDbLine
 10
-58.7605735166
 20
395.400222976
 30
0.0
 11
-58.7605735166
 21
468.8888960458
 31
0.0
  0
LINE
  5
35E
330
277
100
AcDbEntity
  8
0
  6
Continuous
 62
     7
370
    25
100
AcDbLine
 10
-115.9655121146
 20
432.5529077191
 30
0.0
 11
-115.9655121146
 21
416.2621042344
 31
0.0
  0
LINE
  5
35F
330
277
100
AcDbEntity
  8
0
  6
Continuous
 62
     7
370
    25
100
AcDbLine
 10
-108.8944443027
 20
420.3441447935
 30
0.0
 11
-108.8944443027
 21
428.47086716
 31
0.0
  0
LINE
  5
360
330
277
100
AcDbEntity
  8
0
  6
Continuous
 62
     7
370
    25
100
AcDbLine
 10
-108.8944443027
 20
439.4402251404
 30
0.0
 11
-108.8944443027
 21
461.1711853878
 31
0.0
  0
LINE
  5
361
330
277
100
AcDbEntity
  8
0
  6
Continuous
 62
     7
370
    25
100
AcDbLine
 10
-115.9655121146
 20
457.0891448287
 30
0.0
 11
-115.9655121146
 21
440.7583285909
 31
0.0
  0
LINE
  5
362
330
277
100
AcDbEntity
  8
0
  6
Continuous
 62
     7
370
    25
100
AcDbLine
 10
-115.9655121146
 20
440.7583285909
 30
0.0
 11
-125.15790027
 21
435.4516758641
 31
0.0
  0
LINE
  5
363
330
277
100
AcDbEntity
  8
0
  6
Continuous
 62
     7
370
    25
100
AcDbLine
 10
-125.15790027
 20
468.1133083395
 30
0.0
 11
-125.15790027
 21
435.4516758641
 31
0.0
  0
LINE
  5
364
330
277
100
AcDbEntity
  8
0
  6
Continuous
 62
     7
370
    25
100
AcDbLine
 10
-125.15790027
 20
394.6246352698
 30
0.0
 11
-92.6309883354
 21
413.4020218417
 31
0.0
  0
LINE
  5
365
330
277
100
AcDbEntity
  8
0
  6
Continuous
 62
     7
370
    25
100
AcDbLine
 10
-125.15790027
 20
427.2862677452
 30
0.0
 11
-125.15790027
 21
394.6246352698
 31
0.0
  0
LINE
  5
366
330
277
100
AcDbEntity
  8
0
  6
Continuous
 62
     7
370
    25
100
AcDbLine
 10
-125.15790027
 20
427.2862677452
 30
0.0
 11
-116.0001679302
 21
432.5729140956
 31
0.0
  0
LINE
  5
367
330
277
100
AcDbEntity
  8
0
  6
Continuous
 62
     7
370
    25
100
AcDbLine
 10
-126.5014031543
 20
436.2272635703
 30
0.0
 11
-125.15790027
 21
435.4516758641
 31
0.0
  0
LINE
  5
368
330
277
100
AcDbEntity
  8
0
  6
Continuous
 62
     7
370
    25
100
AcDbLine
 10
-126.5014031543
 20
436.2272635703
 30
0.0
 11
-126.5014031543
 21
468.8888960458
 31
0.0
  0
LINE
  5
369
330
277
100
AcDbEntity
  8
0
  6
Continuous
 62
     7
370
    25
100
AcDbLine
 10
-69.3671752344
 20
461.9473038943
 30
0.0
 11
-70.7106781187
 21
461.171716188
 31
0.0
  0
LINE
  5
36A
330
277
100
AcDbEntity
  8
0
  6
Continuous
 62
     7
370
    25
100
AcDbLine
 10
-69.3671752344
 20
461.9473038943
 30
0.0
 11
-68.6978334771
 21
461.6860392057
 31
0.0
  0
LINE
  5
36B
330
277
100
AcDbEntity
  8
0
  6
Continuous
 62
     7
370
    25
100
AcDbLine
 10
-110.237947187
 20
461.946773094
 30
0.0
 11
-108.8944443027
 21
461.1711853878
 31
0.0
  0
LINE
  5
36C
330
277
100
AcDbEntity
  8
0
  6
Continuous
 62
     7
370
    25
100
AcDbLine
 10
-80.6808837334
 20
468.4785687888
 30
0.0
 11
-82.0243866176
 21
467.7029810826
 31
0.0
  0
LINE
  5
36D
330
277
100
AcDbEntity
  8
0
  6
Continuous
 62
     7
370
    25
100
AcDbLine
 10
-80.6808837334
 20
468.4785687888
 30
0.0
 11
-69.3671752344
 21
461.9473038943
 31
0.0
  0
LINE
  5
36E
330
277
100
AcDbEntity
  8
0
  6
Continuous
 62
     7
370
    25
100
AcDbLine
 10
-110.237947187
 20
421.1197324997
 30
0.0
 11
-108.8944443027
 21
420.3441447935
 31
0.0
  0
LINE
  5
36F
330
277
100
AcDbEntity
  8
0
  6
Continuous
 62
     7
370
    25
100
AcDbLine
 10
-110.237947187
 20
421.1197324997
 30
0.0
 11
-110.237947187
 21
429.2464548662
 31
0.0
  0
LINE
  5
370
330
277
100
AcDbEntity
  8
0
  6
Continuous
 62
     7
370
    25
100
AcDbLine
 10
-110.237947187
 20
440.2158128467
 30
0.0
 11
-110.237947187
 21
461.946773094
 31
0.0
  0
LINE
  5
371
330
277
100
AcDbEntity
  8
0
  6
Continuous
 62
     7
370
    25
100
AcDbLine
 10
-126.5014031543
 20
428.0618554515
 30
0.0
 11
-125.15790027
 21
427.2862677452
 31
0.0
  0
LINE
  5
372
330
277
100
AcDbEntity
  8
0
  6
Continuous
 62
     7
370
    25
100
AcDbLine
 10
-126.5014031543
 20
428.0618554515
 30
0.0
 11
-117.3436708144
 21
433.3485018018
 31
0.0
  0
LINE
  5
373
330
277
100
AcDbEntity
  8
0
  6
Continuous
 62
     7
370
    25
100
AcDbLine
 10
-125.15790027
 20
394.6246352698
 30
0.0
 11
-126.5014031543
 21
395.400222976
 31
0.0
  0
LINE
  5
374
330
277
100
AcDbEntity
  8
0
  6
Continuous
 62
     7
370
    25
100
AcDbLine
 10
-126.5014031543
 20
395.400222976
 30
0.0
 11
-126.5014031543
 21
428.0618554515
 31
0.0
  0
LINE
  5
375
330
277
100
AcDbEntity
  8
0
  6
Continuous
 62
     7
370
    25
100
AcDbLine
 10
-77.1453498275
 20
446.840569024
 30
0.0
 11
-78.4888527117
 21
446.0649813178
 31
0.0
  0
LINE
  5
376
330
277
100
AcDbEntity
  8
0
  6
Continuous
 62
     7
370
    25
100
AcDbLine
 10
-77.0368741254
 20
447.5512562742
 30
0.0
 11
-77.1453498275
 21
446.840569024
 31
0.0
  0
LINE
  5
377
330
277
100
AcDbEntity
  8
0
  6
Continuous
 62
     7
370
    25
100
AcDbLine
 10
-77.1453498275
 20
438.6751609052
 30
0.0
 11
-78.4888527117
 21
437.8995731989
 31
0.0
  0
LINE
  5
378
330
277
100
AcDbEntity
  8
0
  6
Continuous
 62
     7
370
    25
100
AcDbLine
 10
-77.1453498275
 20
446.840569024
 30
0.0
 11
-77.1453498275
 21
438.6751609052
 31
0.0
  0
LINE
  5
379
330
277
100
AcDbEntity
  8
0
  6
Continuous
 62
     7
370
    25
100
AcDbLine
 10
-69.3671752344
 20
409.6886919336
 30
0.0
 11
-70.7106781187
 21
408.9131042273
 31
0.0
  0
LINE
  5
37A
330
277
100
AcDbEntity
  8
0
  6
Continuous
 62
     7
370
    25
100
AcDbLine
 10
-69.3671752344
 20
409.6886919336
 30
0.0
 11
-68.6978334771
 21
409.427427245
 31
0.0
  0
LINE
  5
37B
330
277
100
AcDbEntity
  8
0
  6
Continuous
 62
     7
370
    25
100
AcDbLine
 10
-80.6808837334
 20
416.2199568281
 30
0.0
 11
-82.0243866176
 21
415.4443691219
 31
0.0
  0
LINE
  5
37C
330
277
100
AcDbEntity
  8
0
  6
Continuous
 62
     7
370
    25
100
AcDbLine
 10
-80.6808837334
 20
416.2199568281
 30
0.0
 11
-69.3671752344
 21
409.6886919336
 31
0.0
  0
LINE
  5
37D
330
277
100
AcDbEntity
  8
0
  6
Continuous
 62
     7
370
    25
100
AcDbLine
 10
-96.1665222414
 20
566.6403096302
 30
0.0
 11
-387.4945160902
 21
398.4602385947
 31
0.0
  0
LINE
  5
37E
330
277
100
AcDbEntity
  8
0
  6
Continuous
 62
     7
370
    25
100
AcDbLine
 10
-96.1665222414
 20
319.2419790352
 30
0.0
 11
-96.1665222414
 21
411.3610015622
 31
0.0
  0
LINE
  5
37F
330
277
100
AcDbEntity
  8
0
  6
Continuous
 62
     7
370
    25
100
AcDbLine
 10
-96.1665222414
 20
486.4008500444
 30
0.0
 11
-96.1665222414
 21
566.6403096302
 31
0.0
  0
LINE
  5
380
330
277
100
AcDbEntity
  8
0
  6
Continuous
 62
     7
370
    25
100
AcDbLine
 10
-387.4945160902
 20
398.4602385947
 30
0.0
 11
-387.4945160902
 21
393.9692641293
 31
0.0
  0
LINE
  5
381
330
277
100
AcDbEntity
  8
0
  6
Continuous
 62
     7
370
    25
100
AcDbLine
 10
-96.1665222414
 20
566.6403096302
 30
0.0
 11
-109.035865659
 21
574.0696234478
 31
0.0
  0
LINE
  5
382
330
277
100
AcDbEntity
  8
0
  6
Continuous
 62
     7
370
    25
100
AcDbLine
 10
-387.4945160902
 20
398.4602385947
 30
0.0
 11
-400.3638595078
 21
405.8895524123
 31
0.0
  0
LINE
  5
383
330
277
100
AcDbEntity
  8
0
  6
Continuous
 62
     7
370
    25
100
AcDbLine
 10
-109.035865659
 20
574.0696234478
 30
0.0
 11
-400.3638595078
 21
405.8895524123
 31
0.0
  0
LINE
  5
384
330
277
100
AcDbEntity
  8
0
  6
Continuous
 62
     7
370
    25
100
AcDbLine
 10
-400.3638595078
 20
405.8895524123
 30
0.0
 11
-400.3638595078
 21
401.3985779469
 31
0.0
  0
LINE
  5
385
330
277
100
AcDbEntity
  8
0
  6
Continuous
 62
     7
370
    25
100
AcDbLine
 10
-131.5218613007
 20
392.5573914378
 30
0.0
 11
-131.5218613007
 21
469.6388440799
 31
0.0
  0
LINE
  5
386
330
277
100
AcDbEntity
  8
0
  6
Continuous
 62
     7
370
    25
100
AcDbLine
 10
-127.2792206136
 20
469.6388440799
 30
0.0
 11
-127.2792206136
 21
392.5573914378
 31
0.0
  0
LINE
  5
387
330
277
100
AcDbEntity
  8
0
  6
Continuous
 62
     7
370
    25
100
AcDbLine
 10
-132.9360748631
 20
470.4552521917
 30
0.0
 11
-131.5218613007
 21
469.6388440799
 31
0.0
  0
LINE
  5
388
330
277
100
AcDbEntity
  8
0
  6
Continuous
 62
     7
370
    25
100
AcDbLine
 10
-132.9360748631
 20
470.4552521917
 30
0.0
 11
-131.6632826569
 21
471.1900194923
 31
0.0
  0
LINE
  5
389
330
277
100
AcDbEntity
  8
0
  6
Continuous
 62
     7
370
    25
100
AcDbLine
 10
-131.6632826569
 20
471.1900194923
 30
0.0
 11
-130.2490690946
 21
470.3736113805
 31
0.0
  0
LINE
  5
38A
330
277
100
AcDbEntity
  8
0
  6
Continuous
 62
     7
370
    25
100
AcDbLine
 10
-128.5520128197
 20
470.3736113805
 30
0.0
 11
-127.8449060385
 21
470.7818154364
 31
0.0
  0
LINE
  5
38B
330
277
100
AcDbEntity
  8
0
  6
Continuous
 62
     7
370
    25
100
AcDbLine
 10
-127.8449060385
 20
470.7818154364
 30
0.0
 11
-126.5721138324
 21
470.0470481358
 31
0.0
  0
LINE
  5
38C
330
277
100
AcDbEntity
  8
0
  6
Continuous
 62
     7
370
    25
100
AcDbLine
 10
-127.2792206136
 20
469.6388440799
 30
0.0
 11
-126.5721138324
 21
470.0470481358
 31
0.0
  0
LINE
  5
38D
330
277
100
AcDbEntity
  8
0
  6
Continuous
 62
     7
370
    25
100
AcDbLine
 10
-126.5721138324
 20
470.0470481358
 30
0.0
 11
-126.5721138324
 21
471.5168215972
 31
0.0
  0
LINE
  5
38E
330
277
100
AcDbEntity
  8
0
  6
Continuous
 62
     7
370
    25
100
AcDbLine
 10
-104.6518036156
 20
484.1711473304
 30
0.0
 11
-126.5721138324
 21
471.5168215972
 31
0.0
  0
LINE
  5
38F
330
277
100
AcDbEntity
  8
0
  6
Continuous
 62
     7
370
    25
100
AcDbLine
 10
-104.6518036156
 20
484.1711473304
 30
0.0
 11
-104.6518036156
 21
482.701373869
 31
0.0
  0
LINE
  5
390
330
277
100
AcDbEntity
  8
0
  6
Continuous
 62
     7
370
    25
100
AcDbLine
 10
-104.6518036156
 20
482.701373869
 30
0.0
 11
-103.9446968344
 21
483.1095779249
 31
0.0
  0
LINE
  5
391
330
277
100
AcDbEntity
  8
0
  6
Continuous
 62
     7
370
    25
100
AcDbLine
 10
-103.9446968344
 20
406.0281252829
 30
0.0
 11
-104.6518036156
 21
405.619921227
 31
0.0
  0
LINE
  5
392
330
277
100
AcDbEntity
  8
0
  6
Continuous
 62
     7
370
    25
100
AcDbLine
 10
-104.6518036156
 20
405.619921227
 30
0.0
 11
-104.6518036156
 21
404.1501477656
 31
0.0
  0
LINE
  5
393
330
277
100
AcDbEntity
  8
0
  6
Continuous
 62
     7
370
    25
100
AcDbLine
 10
-104.6518036156
 20
404.1501477656
 30
0.0
 11
-126.5721138324
 21
391.4958220324
 31
0.0
  0
LINE
  5
394
330
277
100
AcDbEntity
  8
0
  6
Continuous
 62
     7
370
    25
100
AcDbLine
 10
-126.5721138324
 20
391.4958220324
 30
0.0
 11
-126.5721138324
 21
392.9655954937
 31
0.0
  0
LINE
  5
395
330
277
100
AcDbEntity
  8
0
  6
Continuous
 62
     7
370
    25
100
AcDbLine
 10
-126.5721138324
 20
392.9655954937
 30
0.0
 11
-127.2792206136
 21
392.5573914378
 31
0.0
  0
LINE
  5
396
330
277
100
AcDbEntity
  8
0
  6
Continuous
 62
     7
370
    25
100
AcDbLine
 10
-115.611958724
 20
441.7120535378
 30
0.0
 11
-115.9655121146
 21
441.4864037384
 31
0.0
  0
LINE
  5
397
330
277
100
AcDbEntity
  8
0
  6
Continuous
 62
     7
370
    25
100
AcDbLine
 10
-127.8449060385
 20
472.2515888978
 30
0.0
 11
-126.5721138324
 21
471.5168215972
 31
0.0
  0
LINE
  5
398
330
277
100
AcDbEntity
  8
0
  6
Continuous
 62
     7
370
    25
100
AcDbLine
 10
-127.8449060385
 20
472.2515888978
 30
0.0
 11
-105.9245958217
 21
484.905914631
 31
0.0
  0
LINE
  5
399
330
277
100
AcDbEntity
  8
0
  6
Continuous
 62
     7
370
    25
100
AcDbLine
 10
-105.9245958217
 20
484.905914631
 30
0.0
 11
-104.6518036156
 21
484.1711473304
 31
0.0
  0
LINE
  5
39A
330
277
100
AcDbEntity
  8
0
  6
Continuous
 62
     7
370
    25
100
AcDbLine
 10
-127.8449060385
 20
470.7818154364
 30
0.0
 11
-127.8449060385
 21
472.2515888978
 31
0.0
  0
LINE
  5
39B
330
277
100
AcDbEntity
  8
0
  6
Continuous
 62
     7
370
    25
100
AcDbLine
 10
-132.9360748631
 20
393.3737995497
 30
0.0
 11
-131.5218613007
 21
392.5573914378
 31
0.0
  0
LINE
  5
39C
330
277
100
AcDbEntity
  8
0
  6
Continuous
 62
     7
370
    25
100
AcDbLine
 10
-132.9360748631
 20
393.3737995497
 30
0.0
 11
-132.9360748631
 21
470.4552521917
 31
0.0
  0
LINE
  5
39D
330
277
100
AcDbEntity
  8
0
  6
Continuous
 62
     7
370
    25
100
AcDbLine
 10
-105.2174890406
 20
484.8240349598
 30
0.0
 11
-106.6317026029
 21
485.6404430716
 31
0.0
  0
LINE
  5
39E
330
277
100
AcDbEntity
  8
0
  6
Continuous
 62
     7
370
    25
100
AcDbLine
 10
-106.6317026029
 20
485.6404430716
 30
0.0
 11
-105.3589103968
 21
486.3752103722
 31
0.0
  0
LINE
  5
39F
330
277
100
AcDbEntity
  8
0
  6
Continuous
 62
     7
370
    25
100
AcDbLine
 10
-105.3589103968
 20
486.3752103722
 30
0.0
 11
-103.9446968344
 21
485.5588022604
 31
0.0
  0
LINE
  5
3A0
330
277
100
AcDbEntity
  8
0
  6
Continuous
 62
     7
370
    25
100
AcDbLine
 10
-106.6317026029
 20
484.4977105751
 30
0.0
 11
-106.6317026029
 21
485.6404430716
 31
0.0
  0
LINE
  5
3A1
330
277
100
AcDbEntity
  8
0
  6
Continuous
 62
     7
370
    25
100
AcDbLine
 10
-127.8449060385
 20
392.230589333
 30
0.0
 11
-126.5721138324
 21
391.4958220324
 31
0.0
  0
LINE
  5
3A2
330
277
100
AcDbEntity
  8
0
  6
Continuous
 62
     7
370
    25
100
AcDbLine
 10
-127.8449060385
 20
392.230589333
 30
0.0
 11
-127.8449060385
 21
392.3011734146
 31
0.0
  0
LINE
  5
3A3
330
277
100
AcDbEntity
  8
0
  6
Continuous
 62
     7
370
    25
100
AcDbLine
 10
124.4507934888
 20
102.9205021149
 30
0.0
 11
124.4507934888
 21
98.4295276495
 31
0.0
  0
LINE
  5
3A4
330
277
100
AcDbEntity
  8
0
  6
Continuous
 62
     7
370
    25
100
AcDbLine
 10
124.4507934888
 20
102.9205021149
 30
0.0
 11
137.3201369064
 21
95.4911882973
 31
0.0
  0
LINE
  5
3A5
330
277
100
AcDbEntity
  8
0
  6
Continuous
 62
     7
370
    25
100
AcDbLine
 10
137.3201369064
 20
95.4911882973
 30
0.0
 11
137.3201369064
 21
-231.125136457
 31
0.0
  0
LINE
  5
3A6
330
277
100
AcDbEntity
  8
0
  6
Continuous
 62
     7
370
    25
100
AcDbLine
 10
428.6481307553
 20
263.6712593328
 30
0.0
 11
137.3201369064
 21
95.4911882973
 31
0.0
  0
LINE
  5
3A7
330
277
100
AcDbEntity
  8
0
  6
Continuous
 62
     7
370
    25
100
AcDbLine
 10
428.6481307553
 20
-62.9450654215
 30
0.0
 11
428.6481307553
 21
263.6712593328
 31
0.0
  0
LINE
  5
3A8
330
277
100
AcDbEntity
  8
0
  6
Continuous
 62
     7
370
    25
100
AcDbLine
 10
131.5218613007
 20
-234.4724097155
 30
0.0
 11
428.6481307553
 21
-62.9450654215
 31
0.0
  0
LINE
  5
3A9
330
277
100
AcDbEntity
  8
0
  6
Continuous
 62
     7
370
    25
100
AcDbLine
 10
415.7787873377
 20
271.1005731504
 30
0.0
 11
124.4507934888
 21
102.9205021149
 31
0.0
  0
LINE
  5
3AA
330
277
100
AcDbEntity
  8
0
  6
Continuous
 62
     7
370
    25
100
AcDbLine
 10
415.7787873377
 20
271.1005731504
 30
0.0
 11
428.6481307553
 21
263.6712593328
 31
0.0
  0
LINE
  5
3AB
330
277
100
AcDbEntity
  8
0
  6
Continuous
 62
     7
370
    25
100
AcDbLine
 10
-400.3638595078
 20
401.3985779469
 30
0.0
 11
-406.3742671479
 21
397.9288434717
 31
0.0
  0
LINE
  5
3AC
330
277
100
AcDbEntity
  8
0
  6
Continuous
 62
     7
370
    25
100
AcDbLine
 10
-400.3638595078
 20
401.3985779469
 30
0.0
 11
136.3301874128
 21
91.5716995102
 31
0.0
  0
LINE
  5
3AD
330
277
100
AcDbEntity
  8
0
  6
Continuous
 62
     7
370
    25
100
AcDbLine
 10
136.3301874128
 20
91.5716995102
 30
0.0
 11
130.3197797727
 21
88.1019650349
 31
0.0
  0
LINE
  5
3AE
330
277
100
AcDbEntity
  8
0
  6
Continuous
 62
     7
370
    25
100
AcDbLine
 10
-406.3742671479
 20
389.7647623534
 30
0.0
 11
116.1776441489
 21
88.1019650349
 31
0.0
  0
LINE
  5
3AF
330
277
100
AcDbEntity
  8
0
  6
Continuous
 62
     7
370
    25
100
AcDbLine
 10
130.3197797727
 20
88.1019650349
 30
0.0
 11
130.3197797727
 21
25.5549388445
 31
0.0
  0
LINE
  5
3B0
330
277
100
AcDbEntity
  8
0
  6
Continuous
 62
     7
370
    25
100
AcDbLine
 10
116.1776441489
 20
25.5549388445
 30
0.0
 11
116.1776441489
 21
88.1019650349
 31
0.0
  0
LINE
  5
3B1
330
277
100
AcDbEntity
  8
0
  6
Continuous
 62
     7
370
    25
100
AcDbLine
 10
-406.3742671479
 20
389.7647623534
 30
0.0
 11
-406.3742671479
 21
327.217736163
 31
0.0
  0
LINE
  5
3B2
330
277
100
AcDbEntity
  8
0
  6
Continuous
 62
     7
370
    25
100
AcDbLine
 10
116.1776441489
 20
25.5549388445
 30
0.0
 11
-406.3742671479
 21
327.217736163
 31
0.0
  0
LINE
  5
3B3
330
277
100
AcDbEntity
  8
0
  6
Continuous
 62
     7
370
    25
100
AcDbLine
 10
136.3301874128
 20
91.5716995102
 30
0.0
 11
136.3301874128
 21
29.0246733197
 31
0.0
  0
LINE
  5
3B4
330
277
100
AcDbEntity
  8
0
  6
Continuous
 62
     7
370
    25
100
AcDbLine
 10
136.3301874128
 20
29.0246733197
 30
0.0
 11
130.3197797727
 21
25.5549388445
 31
0.0
  0
LINE
  5
3B5
330
277
100
AcDbEntity
  8
0
  6
Continuous
 62
     7
370
    25
100
AcDbLine
 10
-147.6438959118
 20
335.8967045164
 30
0.0
 11
-147.6438959118
 21
255.5064483642
 31
0.0
  0
LINE
  5
3B6
330
277
100
AcDbEntity
  8
0
  6
Continuous
 62
     7
370
    25
100
AcDbLine
 10
-147.6438959118
 20
335.8967045164
 30
0.0
 11
-136.3301874128
 21
342.427969411
 31
0.0
  0
LINE
  5
3B7
330
277
100
AcDbEntity
  8
0
  6
Continuous
 62
     7
370
    25
100
AcDbLine
 10
-162.4931383167
 20
276.696102304
 30
0.0
 11
-173.4212842841
 21
270.3874179212
 31
0.0
  0
LINE
  5
3B8
330
277
100
AcDbEntity
  8
0
  6
Continuous
 62
     7
370
    25
100
AcDbLine
 10
-161.1379737673
 20
263.2964136961
 30
0.0
 11
-162.4931383167
 21
276.696102304
 31
0.0
  0
LINE
  5
3B9
330
277
100
AcDbEntity
  8
0
  6
Continuous
 62
     7
370
    25
100
AcDbLine
 10
-167.442885785
 20
285.2683874782
 30
0.0
 11
-183.3207792207
 21
276.1022747039
 31
0.0
  0
LINE
  5
3BA
330
277
100
AcDbEntity
  8
0
  6
Continuous
 62
     7
370
    25
100
AcDbLine
 10
-162.4931383167
 20
276.696102304
 30
0.0
 11
-167.442885785
 21
279.5535306954
 31
0.0
  0
LINE
  5
3BB
330
277
100
AcDbEntity
  8
0
  6
Continuous
 62
     7
370
    25
100
AcDbLine
 10
-156.1395545999
 20
353.8516922807
 30
0.0
 11
-156.129177286
 21
353.8576829765
 31
0.0
  0
LINE
  5
3BC
330
277
100
AcDbEntity
  8
0
  6
Continuous
 62
     7
370
    25
100
AcDbLine
 10
-156.129177286
 20
353.8576829765
 30
0.0
 11
-137.1079828
 21
342.8769811306
 31
0.0
  0
LINE
  5
3BD
330
277
100
AcDbEntity
  8
0
  6
Continuous
 62
     7
370
    25
100
AcDbLine
 10
-137.1079828
 20
342.8769811306
 30
0.0
 11
-136.0473226282
 21
343.4892872144
 31
0.0
  0
LINE
  5
3BE
330
277
100
AcDbEntity
  8
0
  6
Continuous
 62
     7
370
    25
100
AcDbLine
 10
-136.0473226282
 20
343.4892872144
 30
0.0
 11
-122.6122937857
 21
335.7334101521
 31
0.0
  0
LINE
  5
3BF
330
277
100
AcDbEntity
  8
0
  6
Continuous
 62
     7
370
    25
100
AcDbLine
 10
-122.6122937857
 20
335.7334101521
 30
0.0
 11
-123.6729539575
 21
335.1211040683
 31
0.0
  0
LINE
  5
3C0
330
277
100
AcDbEntity
  8
0
  6
Continuous
 62
     7
370
    25
100
AcDbLine
 10
-65.6195092941
 20
301.6075638199
 30
0.0
 11
-136.3301874128
 21
342.427969411
 31
0.0
  0
LINE
  5
3C1
330
277
100
AcDbEntity
  8
0
  6
Continuous
 62
     7
370
    25
100
AcDbLine
 10
-76.9332177931
 20
295.0762989253
 30
0.0
 11
-164.7491801661
 21
345.7713749281
 31
0.0
  0
LINE
  5
3C2
330
277
100
AcDbEntity
  8
0
  6
Continuous
 62
     7
370
    25
100
AcDbLine
 10
-157.6781123542
 20
349.8534154873
 30
0.0
 11
-164.7491801661
 21
345.7713749281
 31
0.0
  0
LINE
  5
3C3
330
277
100
AcDbEntity
  8
0
  6
Continuous
 62
     7
370
    25
100
AcDbLine
 10
-122.6122937857
 20
335.7334101521
 30
0.0
 11
-122.6122937857
 21
334.5087979844
 31
0.0
  0
LINE
  5
3C4
330
277
100
AcDbEntity
  8
0
  6
Continuous
 62
     7
370
    25
100
AcDbLine
 10
-164.8574244168
 20
345.7054097601
 30
0.0
 11
-164.7491801661
 21
345.7713749281
 31
0.0
  0
LINE
  5
3C5
330
277
100
AcDbEntity
  8
0
  6
Continuous
 62
     7
370
    25
100
AcDbLine
 10
-167.442885785
 20
344.2128546822
 30
0.0
 11
-167.442885785
 21
279.5535306954
 31
0.0
  0
LINE
  5
3C6
330
277
100
AcDbEntity
  8
0
  6
Continuous
 62
     7
370
    25
100
AcDbLine
 10
103.3790114095
 20
117.4955915982
 30
0.0
 11
50.3460028205
 21
148.1108957915
 31
0.0
  0
LINE
  5
3C7
330
277
100
AcDbEntity
  8
0
  6
Continuous
 62
     7
370
    25
100
AcDbLine
 10
103.3790114095
 20
117.4955915982
 30
0.0
 11
114.6927199085
 21
124.0268564927
 31
0.0
  0
LINE
  5
3C8
330
277
100
AcDbEntity
  8
0
  6
Continuous
 62
     7
370
    25
100
AcDbLine
 10
50.3460028205
 20
148.1108957915
 30
0.0
 11
61.6597113195
 21
154.6421606861
 31
0.0
  0
LINE
  5
3C9
330
277
100
AcDbEntity
  8
0
  6
Continuous
 62
     7
370
    25
100
AcDbLine
 10
114.6927199085
 20
124.0268564927
 30
0.0
 11
61.6597113195
 21
154.6421606861
 31
0.0
  0
LINE
  5
3CA
330
277
100
AcDbEntity
  8
0
  6
Continuous
 62
     7
370
    25
100
AcDbLine
 10
0.8485281374
 20
205.2641081213
 30
0.0
 11
12.1622366364
 21
211.7953730159
 31
0.0
  0
LINE
  5
3CB
330
277
100
AcDbEntity
  8
0
  6
Continuous
 62
     7
370
    25
100
AcDbLine
 10
-76.9332177931
 20
295.0762989253
 30
0.0
 11
-65.6195092941
 21
301.6075638199
 31
0.0
  0
LINE
  5
3CC
330
277
100
AcDbEntity
  8
0
  6
Continuous
 62
     7
370
    25
100
AcDbLine
 10
117.379725677
 20
-234.4724097155
 30
0.0
 11
117.379725677
 21
14.5725379097
 31
0.0
  0
LINE
  5
3CD
330
277
100
AcDbEntity
  8
0
  6
Continuous
 62
     7
370
    25
100
AcDbLine
 10
131.5218613007
 20
14.5725379097
 30
0.0
 11
131.5218613007
 21
-234.4724097155
 31
0.0
  0
LINE
  5
3CE
330
277
100
AcDbEntity
  8
0
  6
Continuous
 62
     7
370
    25
100
AcDbLine
 10
-84.8528137424
 20
131.3188979003
 30
0.0
 11
-75.9417856498
 21
136.4631249202
 31
0.0
  0
LINE
  5
3CF
330
277
100
AcDbEntity
  8
0
  6
Continuous
 62
     7
370
    25
100
AcDbLine
 10
137.3201369064
 20
17.9198111681
 30
0.0
 11
126.4850359388
 21
24.174781816
 31
0.0
  0
LINE
  5
3D0
330
277
100
AcDbEntity
  8
0
  6
Continuous
 62
     7
370
    25
100
AcDbLine
 10
131.5218613007
 20
14.5725379097
 30
0.0
 11
137.3201369064
 21
17.9198111681
 31
0.0
  0
LINE
  5
3D1
330
277
100
AcDbEntity
  8
0
  6
Continuous
 62
     7
370
    25
100
AcDbLine
 10
117.379725677
 20
14.5725379097
 30
0.0
 11
-84.8528137424
 21
131.3188979003
 31
0.0
  0
LINE
  5
3D2
330
277
100
AcDbEntity
  8
0
  6
Continuous
 62
     7
370
    25
100
AcDbLine
 10
-405.1721856199
 20
316.2353352282
 30
0.0
 11
-405.1721856199
 21
67.190387603
 31
0.0
  0
LINE
  5
3D3
330
277
100
AcDbEntity
  8
0
  6
Continuous
 62
     7
370
    25
100
AcDbLine
 10
-202.9396462005
 20
199.4889752375
 30
0.0
 11
-405.1721856199
 21
316.2353352282
 31
0.0
  0
LINE
  5
3D4
330
277
100
AcDbEntity
  8
0
  6
Continuous
 62
     7
370
    25
100
AcDbLine
 10
-405.1721856199
 20
67.190387603
 30
0.0
 11
117.379725677
 21
-234.4724097155
 31
0.0
  0
LINE
  5
3D5
330
277
100
AcDbEntity
  8
0
  6
Continuous
 62
     7
370
    25
100
AcDbLine
 10
-202.9396462005
 20
199.4889752375
 30
0.0
 11
-194.028618108
 21
204.6332022574
 31
0.0
  0
LINE
  5
3D6
330
277
100
AcDbEntity
  8
0
  6
Continuous
 62
     7
370
    25
100
AcDbLine
 10
-405.1721856199
 20
324.3994163464
 30
0.0
 11
-403.3322253392
 21
325.4616028072
 31
0.0
  0
LINE
  5
3D7
330
277
100
AcDbEntity
  8
0
  6
Continuous
 62
     8
370
    25
100
AcDbLine
 10
-103.9446968344
 20
406.0281252829
 30
0.0
 11
-103.9446968344
 21
406.8707569471
 31
0.0
  0
LINE
  5
3D8
330
277
100
AcDbEntity
  8
0
  6
Continuous
 62
     8
370
    25
100
AcDbLine
 10
-103.9446968344
 20
481.9106054293
 30
0.0
 11
-103.9446968344
 21
483.1095779249
 31
0.0
  0
LINE
  5
3D9
330
277
100
AcDbEntity
  8
0
  6
Continuous
 62
     8
370
    25
100
AcDbLine
 10
-105.2174890406
 20
484.4977105751
 30
0.0
 11
-105.2174890406
 21
484.8240349598
 31
0.0
  0
ARC
  5
3DA
330
277
100
AcDbEntity
  8
0
  6
Continuous
 62
     7
370
    25
100
AcDbCircle
 10
-78.6601180784
 20
472.060623259
 30
0.0
 40
4.112737295207735
100
AcDbArc
 50
168.7427253511
 51
240.5710930714
  0
ARC
  5
3DB
330
277
100
AcDbEntity
  8
0
  6
Continuous
 62
     7
370
    25
100
AcDbCircle
 10
-73.0328697686
 20
438.6341413124
 30
0.0
 40
4.112684626990437
100
AcDbArc
 50
179.4285269296
 51
251.2523714446
  0
ARC
  5
3DC
330
277
100
AcDbEntity
  8
0
  6
Continuous
 62
     7
370
    25
100
AcDbCircle
 10
-78.6601180784
 20
419.8020112983
 30
0.0
 40
4.112737295198187
100
AcDbArc
 50
168.7427253507
 51
240.5710930715
  0
ARC
  5
3DD
330
277
100
AcDbEntity
  8
0
  6
Continuous
 62
     7
370
    25
100
AcDbCircle
 10
-129.4005409571
 20
473.7329773347
 30
0.0
 40
4.611065723734568
100
AcDbArc
 50
242.6096722366
 51
297.3903277634
  0
ARC
  5
3DE
330
277
100
AcDbEntity
  8
0
  6
Continuous
 62
     7
370
    25
100
AcDbCircle
 10
-129.4005409571
 20
396.6515246927
 30
0.0
 40
4.611065723734899
100
AcDbArc
 50
242.6096722366
 51
297.3903277634
  0
ARC
  5
3DF
330
277
100
AcDbEntity
  8
0
  6
Continuous
 62
     7
370
    25
100
AcDbCircle
 10
-129.4005409571
 20
472.0112646824
 30
0.0
 40
1.844426289493664
100
AcDbArc
 50
242.6096722366
 51
297.3903277634
  0
ARC
  5
3E0
330
277
100
AcDbEntity
  8
0
  6
Continuous
 62
     7
370
    25
100
AcDbCircle
 10
-114.2231302504
 20
439.7955355793
 30
0.0
 40
2.3668302884595
100
AcDbArc
 50
65.3810279525
 51
125.9294304765
  0
ARC
  5
3E1
330
277
100
AcDbEntity
  8
0
  6
Continuous
 62
     7
370
    25
100
AcDbCircle
 10
-105.445986003
 20
484.2929665309
 30
0.0
 40
0.5781388569865469
100
AcDbArc
 50
0.2878271118
 51
66.7197732297
  0
ARC
  5
3E2
330
277
100
AcDbEntity
  8
0
  6
Continuous
 62
     7
370
    25
100
AcDbCircle
 10
-104.4094779148
 20
484.3341900927
 30
0.0
 40
1.309845950502803
100
AcDbArc
 50
290.7834207995
 51
69.2165792005
  0
ARC
  5
3E3
330
277
100
AcDbEntity
  8
0
  6
Continuous
 62
     7
370
    25
100
AcDbCircle
 10
-104.5673883655
 20
407.4024565813
 30
0.0
 40
1.508817835481499
100
AcDbArc
 50
294.3746582936
 51
354.3052007488
  0
ARC
  5
3E4
330
277
100
AcDbEntity
  8
0
  6
Continuous
 62
     7
370
    25
100
AcDbCircle
 10
123.2487119608
 20
101.7490758845
 30
0.0
 40
15.37021907911685
100
AcDbArc
 50
242.6096722366
 51
297.3903277634
  0
ARC
  5
3E5
330
277
100
AcDbEntity
  8
0
  6
Continuous
 62
     7
370
    25
100
AcDbCircle
 10
123.2487119608
 20
39.2020496941
 30
0.0
 40
15.37021907911748
100
AcDbArc
 50
242.6096722366
 51
297.3903277634
  0
ARC
  5
3E6
330
277
100
AcDbEntity
  8
0
  6
Continuous
 62
     7
370
    25
100
AcDbCircle
 10
-404.2986287111
 20
331.7988404911
 30
0.0
 40
5.029392784937926
100
AcDbArc
 50
185.6947992512
 51
245.6253417064
  0
ARC
  5
3E7
330
277
100
AcDbEntity
  8
0
  6
Continuous
 62
     7
370
    25
100
AcDbCircle
 10
-174.8710945148
 20
346.2531788502
 30
0.0
 40
2.49180815435134
100
AcDbArc
 50
305.3793155066
 51
5.9328648868
  0
ARC
  5
3E8
330
277
100
AcDbEntity
  8
0
  6
Continuous
 62
     7
370
    25
100
AcDbCircle
 10
124.4507934888
 20
28.2196487592
 30
0.0
 40
15.37021907911729
100
AcDbArc
 50
242.6096722366
 51
297.3903277634
  0
ARC
  5
3E9
330
277
100
AcDbEntity
  8
0
  6
Continuous
 62
     7
370
    25
100
AcDbCircle
 10
124.4507934888
 20
-220.8252988659
 30
0.0
 40
15.3702190791176
100
AcDbArc
 50
242.6096722366
 51
297.3903277634
  0
ARC
  5
3EA
330
277
100
AcDbEntity
  8
0
  6
Continuous
 62
     7
370
    25
100
AcDbCircle
 10
-403.0965471831
 20
71.7714919311
 30
0.0
 40
5.029392784937873
100
AcDbArc
 50
185.6947992512
 51
245.6253417064
  0
VIEWPORT
  5
3F1
330
277
100
AcDbEntity
  8
0
100
AcDbViewport
 10
0.0
 20
0.0
 30
0.0
 40
205.6
 41
156.0
 68
     1
 69
     1
 12
0.0
 22
200.0
 13
0.0
 23
0.0
 14
10.0
 24
10.0
 15
10.0
 25
10.0
 16
0.0
 26
0.0
 36
1.0
 17
0.0
 27
0.0
 37
0.0
 42
50.0
 43
0.0
 44
0.0
 45
588.4963424125
 50
0.0
 51
0.0
 72
   100
 90
   557152
  1

281
     0
 71
     1
 74
     0
110
0.0
120
0.0
130
0.0
111
1.0
121
0.0
131
0.0
112
0.0
122
1.0
132
0.0
 79
     0
146
0.0
  0
ENDBLK
  5
27A
330
277
100
AcDbEntity
  8
0
100
AcDbBlockEnd
  0
ENDSEC
  0
SECTION
  2
ENTITIES
  0
LINE
  5
95
330
1F
100
AcDbEntity
  8
0
  6
Continuous
 62
     7
370
    25
100
AcDbLine
 10
-362.0
 20
400.0
 30
0.0
 11
-380.2
 21
400.0
 31
0.0
  0
LINE
  5
96
330
1F
100
AcDbEntity
  8
0
  6
Continuous
 62
     7
370
    25
100
AcDbLine
 10
-362.0
 20
400.0
 30
0.0
 11
-362.0
 21
394.5
 31
0.0
  0
LINE
  5
97
330
1F
100
AcDbEntity
  8
0
  6
Continuous
 62
     7
370
    25
100
AcDbLine
 10
-362.0
 20
317.9
 30
0.0
 11
-362.0
 21
305.0
 31
0.0
  0
LINE
  5
98
330
1F
100
AcDbEntity
  8
0
  6
Continuous
 62
     7
370
    25
100
AcDbLine
 10
-380.2
 20
400.0
 30
0.0
 11
-380.2
 21
0.0
 31
0.0
  0
LINE
  5
99
330
1F
100
AcDbEntity
  8
0
  6
Continuous
 62
     7
370
    25
100
AcDbLine
 10
362.0
 20
400.0
 30
0.0
 11
362.0
 21
394.5
 31
0.0
  0
LINE
  5
9A
330
1F
100
AcDbEntity
  8
0
  6
Continuous
 62
     7
370
    25
100
AcDbLine
 10
362.0
 20
305.0
 30
0.0
 11
362.0
 21
317.9
 31
0.0
  0
LINE
  5
9B
330
1F
100
AcDbEntity
  8
0
  6
Continuous
 62
     7
370
    25
100
AcDbLine
 10
362.0
 20
400.0
 30
0.0
 11
380.2
 21
400.0
 31
0.0
  0
LINE
  5
9C
330
1F
100
AcDbEntity
  8
0
  6
Continuous
 62
     7
370
    25
100
AcDbLine
 10
380.2
 20
400.0
 30
0.0
 11
380.2
 21
0.0
 31
0.0
  0
LINE
  5
9D
330
1F
100
AcDbEntity
  8
0
  6
Continuous
 62
     7
370
    25
100
AcDbLine
 10
-370.2
 20
394.5
 30
0.0
 11
-370.2
 21
317.9
 31
0.0
  0
LINE
  5
9E
330
1F
100
AcDbEntity
  8
0
  6
Continuous
 62
     7
370
    25
100
AcDbLine
 10
378.8
 20
394.5
 30
0.0
 11
378.8
 21
317.9
 31
0.0
  0
LINE
  5
9F
330
1F
100
AcDbEntity
  8
0
  6
Continuous
 62
     7
370
    25
100
AcDbLine
 10
368.8
 20
317.9
 30
0.0
 11
368.8
 21
394.5
 31
0.0
  0
LINE
  5
A0
330
1F
100
AcDbEntity
  8
0
  6
Continuous
 62
     7
370
    25
100
AcDbLine
 10
378.8
 20
317.9
 30
0.0
 11
-380.2
 21
317.9
 31
0.0
  0
LINE
  5
A1
330
1F
100
AcDbEntity
  8
0
  6
Continuous
 62
     7
370
    25
100
AcDbLine
 10
-380.2
 20
394.5
 30
0.0
 11
378.8
 21
394.5
 31
0.0
  0
LINE
  5
A2
330
1F
100
AcDbEntity
  8
0
  6
Continuous
 62
     7
370
    25
100
AcDbLine
 10
-368.8
 20
305.0
 30
0.0
 11
-368.8
 21
0.0
 31
0.0
  0
LINE
  5
A3
330
1F
100
AcDbEntity
  8
0
  6
Continuous
 62
     7
370
    25
100
AcDbLine
 10
-378.8
 20
0.0
 30
0.0
 11
-378.8
 21
305.0
 31
0.0
  0
LINE
  5
A4
330
1F
100
AcDbEntity
  8
0
  6
Continuous
 62
     7
370
    25
100
AcDbLine
 10
-82.8
 20
305.0
 30
0.0
 11
-378.8
 21
305.0
 31
0.0
  0
LINE
  5
A5
330
1F
100
AcDbEntity
  8
0
  6
Continuous
 62
     7
370
    25
100
AcDbLine
 10
370.2
 20
0.0
 30
0.0
 11
370.2
 21
305.0
 31
0.0
  0
LINE
  5
A6
330
1F
100
AcDbEntity
  8
0
  6
Continuous
 62
     7
370
    25
100
AcDbLine
 10
380.2
 20
305.0
 30
0.0
 11
84.2
 21
305.0
 31
0.0
  0
LINE
  5
A7
330
1F
100
AcDbEntity
  8
0
  6
Continuous
 62
     7
370
    25
100
AcDbLine
 10
-380.2
 20
0.0
 30
0.0
 11
380.2
 21
0.0
 31
0.0
  0
ARC
  5
A8
330
1F
100
AcDbEntity
  8
0
  6
Continuous
 62
     7
370
    25
100
AcDbCircle
 10
0.7
 20
469.30625
 30
0.0
 40
184.3062499999993
100
AcDbArc
 50
243.0604435409
 51
296.9395564591
  0
LINE
  5
118
330
1B
100
AcDbEntity
 67
     1
  8
0
  6
Continuous
 62
     7
370
    25
100
AcDbLine
 10
357.0
 20
212.0
 30
0.0
 11
357.0
 21
310.0
 31
0.0
  0
LINE
  5
119
330
1B
100
AcDbEntity
 67
     1
  8
0
  6
Continuous
 62
     7
370
    25
100
AcDbLine
 10
324.1
 20
232.7316441283
 30
0.0
 11
340.1
 21
232.7316441283
 31
0.0
  0
LINE
  5
11A
330
1B
100
AcDbEntity
 67
     1
  8
0
  6
Continuous
 62
     7
370
    25
100
AcDbLine
 10
340.1
 20
226.7316441283
 30
0.0
 11
324.1
 21
226.7316441283
 31
0.0
  0
LINE
  5
11B
330
1B
100
AcDbEntity
 67
     1
  8
0
  6
Continuous
 62
     7
370
    25
100
AcDbLine
 10
329.1
 20
256.7316441283
 30
0.0
 11
329.1
 21
266.7316441283
 31
0.0
  0
LINE
  5
11C
330
1B
100
AcDbEntity
 67
     1
  8
0
  6
Continuous
 62
     7
370
    25
100
AcDbLine
 10
335.1
 20
266.7316441283
 30
0.0
 11
335.1
 21
256.7316441283
 31
0.0
  0
LINE
  5
11D
330
1B
100
AcDbEntity
 67
     1
  8
0
  6
Continuous
 62
     7
370
    25
100
AcDbLine
 10
324.1
 20
296.7316441283
 30
0.0
 11
340.1
 21
296.7316441283
 31
0.0
  0
LINE
  5
11E
330
1B
100
AcDbEntity
 67
     1
  8
0
  6
Continuous
 62
     7
370
    25
100
AcDbLine
 10
340.1
 20
290.7316441283
 30
0.0
 11
324.1
 21
290.7316441283
 31
0.0
  0
LINE
  5
11F
330
1B
100
AcDbEntity
 67
     1
  8
0
  6
Continuous
 62
     7
370
    25
100
AcDbLine
 10
309.1
 20
306.7316441283
 30
0.0
 11
357.0
 21
306.7316441283
 31
0.0
  0
LINE
  5
120
330
1B
100
AcDbEntity
 67
     1
  8
0
  6
Continuous
 62
     7
370
    25
100
AcDbLine
 10
309.1
 20
216.7316441283
 30
0.0
 11
309.1
 21
306.7316441283
 31
0.0
  0
LINE
  5
121
330
1B
100
AcDbEntity
 67
     1
  8
0
  6
Continuous
 62
     7
370
    25
100
AcDbLine
 10
357.0
 20
216.7316441283
 30
0.0
 11
309.1
 21
216.7316441283
 31
0.0
  0
LINE
  5
122
330
1B
100
AcDbEntity
 67
     1
  8
0
  6
Continuous
 62
     7
370
    25
100
AcDbLine
 10
-351.7
 20
47.5
 30
0.0
 11
350.3
 21
47.5
 31
0.0
  0
LINE
  5
123
330
1B
100
AcDbEntity
 67
     1
  8
0
  6
Continuous
 62
     7
370
    25
100
AcDbLine
 10
350.3
 20
47.5
 30
0.0
 11
350.3
 21
31.5
 31
0.0
  0
LINE
  5
124
330
1B
100
AcDbEntity
 67
     1
  8
0
  6
Continuous
 62
     7
370
    25
100
AcDbLine
 10
-351.7
 20
31.5
 30
0.0
 11
350.3
 21
31.5
 31
0.0
  0
LINE
  5
125
330
1B
100
AcDbEntity
 67
     1
  8
0
  6
Continuous
 62
     7
370
    25
100
AcDbLine
 10
-351.7
 20
47.5
 30
0.0
 11
-351.7
 21
31.5
 31
0.0
  0
LINE
  5
126
330
1B
100
AcDbEntity
 67
     1
  8
0
  6
Continuous
 62
     7
370
    25
100
AcDbLine
 10
-380.2
 20
0.0
 30
0.0
 11
380.2
 21
0.0
 31
0.0
  0
LINE
  5
127
330
1B
100
AcDbEntity
 67
     1
  8
0
  6
Continuous
 62
     7
370
    25
100
AcDbLine
 10
362.0
 20
0.0
 30
0.0
 11
362.0
 21
400.0
 31
0.0
  0
LINE
  5
128
330
1B
100
AcDbEntity
 67
     1
  8
0
  6
Continuous
 62
     7
370
    25
100
AcDbLine
 10
362.0
 20
400.0
 30
0.0
 11
380.2
 21
400.0
 31
0.0
  0
LINE
  5
129
330
1B
100
AcDbEntity
 67
     1
  8
0
  6
Continuous
 62
     7
370
    25
100
AcDbLine
 10
380.2
 20
0.0
 30
0.0
 11
380.2
 21
400.0
 31
0.0
  0
LINE
  5
12A
330
1B
100
AcDbEntity
 67
     1
  8
0
  6
Continuous
 62
     7
370
    25
100
AcDbLine
 10
357.0
 20
308.2
 30
0.0
 11
362.0
 21
308.2
 31
0.0
  0
LINE
  5
12B
330
1B
100
AcDbEntity
 67
     1
  8
0
  6
Continuous
 62
     7
370
    25
100
AcDbLine
 10
362.0
 20
213.8
 30
0.0
 11
357.0
 21
213.8
 31
0.0
  0
LINE
  5
12C
330
1B
100
AcDbEntity
 67
     1
  8
0
  6
Continuous
 62
     7
370
    25
100
AcDbLine
 10
360.0
 20
308.2
 30
0.0
 11
360.0
 21
213.8
 31
0.0
  0
LINE
  5
12D
330
1B
100
AcDbEntity
 67
     1
  8
0
  6
Continuous
 62
     7
370
    25
100
AcDbLine
 10
358.8
 20
310.0
 30
0.0
 11
357.0
 21
310.0
 31
0.0
  0
LINE
  5
12E
330
1B
100
AcDbEntity
 67
     1
  8
0
  6
Continuous
 62
     7
370
    25
100
AcDbLine
 10
358.8
 20
310.0
 30
0.0
 11
358.8
 21
308.2
 31
0.0
  0
LINE
  5
12F
330
1B
100
AcDbEntity
 67
     1
  8
0
  6
Continuous
 62
     7
370
    25
100
AcDbLine
 10
358.8
 20
212.0
 30
0.0
 11
357.0
 21
212.0
 31
0.0
  0
LINE
  5
130
330
1B
100
AcDbEntity
 67
     1
  8
0
  6
Continuous
 62
     7
370
    25
100
AcDbLine
 10
358.8
 20
213.8
 30
0.0
 11
358.8
 21
212.0
 31
0.0
  0
LINE
  5
131
330
1B
100
AcDbEntity
 67
     1
  8
0
  6
Continuous
 62
     7
370
    25
100
AcDbLine
 10
-357.0
 20
310.0
 30
0.0
 11
-357.0
 21
212.0
 31
0.0
  0
LINE
  5
132
330
1B
100
AcDbEntity
 67
     1
  8
0
  6
Continuous
 62
     7
370
    25
100
AcDbLine
 10
-357.0
 20
213.8
 30
0.0
 11
-362.0
 21
213.8
 31
0.0
  0
LINE
  5
133
330
1B
100
AcDbEntity
 67
     1
  8
0
  6
Continuous
 62
     7
370
    25
100
AcDbLine
 10
-360.0
 20
213.8
 30
0.0
 11
-360.0
 21
308.2
 31
0.0
  0
LINE
  5
134
330
1B
100
AcDbEntity
 67
     1
  8
0
  6
Continuous
 62
     7
370
    25
100
AcDbLine
 10
-362.0
 20
308.2
 30
0.0
 11
-357.0
 21
308.2
 31
0.0
  0
LINE
  5
135
330
1B
100
AcDbEntity
 67
     1
  8
0
  6
Continuous
 62
     7
370
    25
100
AcDbLine
 10
-358.8
 20
310.0
 30
0.0
 11
-357.0
 21
310.0
 31
0.0
  0
LINE
  5
136
330
1B
100
AcDbEntity
 67
     1
  8
0
  6
Continuous
 62
     7
370
    25
100
AcDbLine
 10
-358.8
 20
308.2
 30
0.0
 11
-358.8
 21
310.0
 31
0.0
  0
LINE
  5
137
330
1B
100
AcDbEntity
 67
     1
  8
0
  6
Continuous
 62
     7
370
    25
100
AcDbLine
 10
-358.8
 20
212.0
 30
0.0
 11
-357.0
 21
212.0
 31
0.0
  0
LINE
  5
138
330
1B
100
AcDbEntity
 67
     1
  8
0
  6
Continuous
 62
     7
370
    25
100
AcDbLine
 10
-358.8
 20
212.0
 30
0.0
 11
-358.8
 21
213.8
 31
0.0
  0
LINE
  5
139
330
1B
100
AcDbEntity
 67
     1
  8
0
  6
Continuous
 62
     7
370
    25
100
AcDbLine
 10
-362.0
 20
18.2
 30
0.0
 11
362.0
 21
18.2
 31
0.0
  0
LINE
  5
13A
330
1B
100
AcDbEntity
 67
     1
  8
0
  6
Continuous
 62
     7
370
    25
100
AcDbLine
 10
-362.0
 20
400.0
 30
0.0
 11
-380.2
 21
400.0
 31
0.0
  0
LINE
  5
13B
330
1B
100
AcDbEntity
 67
     1
  8
0
  6
Continuous
 62
     7
370
    25
100
AcDbLine
 10
-362.0
 20
0.0
 30
0.0
 11
-362.0
 21
400.0
 31
0.0
  0
LINE
  5
13C
330
1B
100
AcDbEntity
 67
     1
  8
0
  6
Continuous
 62
     7
370
    25
100
AcDbLine
 10
-380.2
 20
0.0
 30
0.0
 11
-380.2
 21
400.0
 31
0.0
  0
LINE
  5
13D
330
1B
100
AcDbEntity
 67
     1
  8
0
  6
Continuous
 62
     7
370
    25
100
AcDbLine
 10
362.0
 20
394.5
 30
0.0
 11
-362.0
 21
394.5
 31
0.0
  0
LINE
  5
13E
330
1B
100
AcDbEntity
 67
     1
  8
0
  6
Continuous
 62
     7
370
    25
100
AcDbLine
 10
-309.1
 20
306.7316441283
 30
0.0
 11
-309.1
 21
216.7316441283
 31
0.0
  0
LINE
  5
13F
330
1B
100
AcDbEntity
 67
     1
  8
0
  6
Continuous
 62
     7
370
    25
100
AcDbLine
 10
-309.1
 20
216.7316441283
 30
0.0
 11
-357.0
 21
216.7316441283
 31
0.0
  0
LINE
  5
140
330
1B
100
AcDbEntity
 67
     1
  8
0
  6
Continuous
 62
     7
370
    25
100
AcDbLine
 10
-324.1
 20
290.7316441283
 30
0.0
 11
-340.1
 21
290.7316441283
 31
0.0
  0
LINE
  5
141
330
1B
100
AcDbEntity
 67
     1
  8
0
  6
Continuous
 62
     7
370
    25
100
AcDbLine
 10
-340.1
 20
296.7316441283
 30
0.0
 11
-324.1
 21
296.7316441283
 31
0.0
  0
LINE
  5
142
330
1B
100
AcDbEntity
 67
     1
  8
0
  6
Continuous
 62
     7
370
    25
100
AcDbLine
 10
-329.1
 20
266.7316441283
 30
0.0
 11
-329.1
 21
256.7316441283
 31
0.0
  0
LINE
  5
143
330
1B
100
AcDbEntity
 67
     1
  8
0
  6
Continuous
 62
     7
370
    25
100
AcDbLine
 10
-335.1
 20
256.7316441283
 30
0.0
 11
-335.1
 21
266.7316441283
 31
0.0
  0
LINE
  5
144
330
1B
100
AcDbEntity
 67
     1
  8
0
  6
Continuous
 62
     7
370
    25
100
AcDbLine
 10
-324.1
 20
226.7316441283
 30
0.0
 11
-340.1
 21
226.7316441283
 31
0.0
  0
LINE
  5
145
330
1B
100
AcDbEntity
 67
     1
  8
0
  6
Continuous
 62
     7
370
    25
100
AcDbLine
 10
-340.1
 20
232.7316441283
 30
0.0
 11
-324.1
 21
232.7316441283
 31
0.0
  0
LINE
  5
146
330
1B
100
AcDbEntity
 67
     1
  8
0
  6
Continuous
 62
     7
370
    25
100
AcDbLine
 10
-357.0
 20
306.7316441283
 30
0.0
 11
-309.1
 21
306.7316441283
 31
0.0
  0
LINE
  5
147
330
1B
100
AcDbEntity
 67
     1
  8
0
  6
Continuous
 62
     7
370
    25
100
AcDbLine
 10
-319.2999687854
 20
199.0
 30
0.0
 11
-319.2999687854
 21
49.0
 31
0.0
  0
LINE
  5
148
330
1B
100
AcDbEntity
 67
     1
  8
0
  6
Continuous
 62
     7
370
    25
100
AcDbLine
 10
-346.2
 20
199.0
 30
0.0
 11
-218.2
 21
199.0
 31
0.0
  0
LINE
  5
149
330
1B
100
AcDbEntity
 67
     1
  8
0
  6
Continuous
 62
     7
370
    25
100
AcDbLine
 10
-319.2999687854
 20
49.0
 30
0.0
 11
-300.2999687854
 21
49.0
 31
0.0
  0
LINE
  5
14A
330
1B
100
AcDbEntity
 67
     1
  8
0
  6
Continuous
 62
     7
370
    25
100
AcDbLine
 10
-300.2999687854
 20
199.0
 30
0.0
 11
-300.2999687854
 21
49.0
 31
0.0
  0
LINE
  5
14B
330
1B
100
AcDbEntity
 67
     1
  8
0
  6
Continuous
 62
     7
370
    25
100
AcDbLine
 10
-351.7
 20
33.0
 30
0.0
 11
-353.2
 21
33.0
 31
0.0
  0
LINE
  5
14C
330
1B
100
AcDbEntity
 67
     1
  8
0
  6
Continuous
 62
     7
370
    25
100
AcDbLine
 10
-353.2
 20
33.0
 30
0.0
 11
-353.2
 21
116.0
 31
0.0
  0
LINE
  5
14D
330
1B
100
AcDbEntity
 67
     1
  8
0
  6
Continuous
 62
     7
370
    25
100
AcDbLine
 10
-353.2
 20
116.0
 30
0.0
 11
-346.2
 21
116.0
 31
0.0
  0
LINE
  5
14E
330
1B
100
AcDbEntity
 67
     1
  8
0
  6
Continuous
 62
     7
370
    25
100
AcDbLine
 10
-346.2
 20
199.0
 30
0.0
 11
-346.2
 21
116.0
 31
0.0
  0
LINE
  5
14F
330
1B
100
AcDbEntity
 67
     1
  8
0
  6
Continuous
 62
     7
370
    25
100
AcDbLine
 10
216.8
 20
199.0
 30
0.0
 11
344.8
 21
199.0
 31
0.0
  0
LINE
  5
150
330
1B
100
AcDbEntity
 67
     1
  8
0
  6
Continuous
 62
     7
370
    25
100
AcDbLine
 10
298.8999687854
 20
199.0
 30
0.0
 11
298.8999687854
 21
49.0
 31
0.0
  0
LINE
  5
151
330
1B
100
AcDbEntity
 67
     1
  8
0
  6
Continuous
 62
     7
370
    25
100
AcDbLine
 10
317.8999687854
 20
49.0
 30
0.0
 11
298.8999687854
 21
49.0
 31
0.0
  0
LINE
  5
152
330
1B
100
AcDbEntity
 67
     1
  8
0
  6
Continuous
 62
     7
370
    25
100
AcDbLine
 10
317.8999687854
 20
199.0
 30
0.0
 11
317.8999687854
 21
49.0
 31
0.0
  0
LINE
  5
153
330
1B
100
AcDbEntity
 67
     1
  8
0
  6
Continuous
 62
     7
370
    25
100
AcDbLine
 10
344.8
 20
199.0
 30
0.0
 11
344.8
 21
116.0
 31
0.0
  0
LINE
  5
154
330
1B
100
AcDbEntity
 67
     1
  8
0
  6
Continuous
 62
     7
370
    25
100
AcDbLine
 10
351.8
 20
116.0
 30
0.0
 11
344.8
 21
116.0
 31
0.0
  0
LINE
  5
155
330
1B
100
AcDbEntity
 67
     1
  8
0
  6
Continuous
 62
     7
370
    25
100
AcDbLine
 10
350.3
 20
33.0
 30
0.0
 11
351.8
 21
33.0
 31
0.0
  0
LINE
  5
156
330
1B
100
AcDbEntity
 67
     1
  8
0
  6
Continuous
 62
     7
370
    25
100
AcDbLine
 10
351.8
 20
33.0
 30
0.0
 11
351.8
 21
116.0
 31
0.0
  0
LINE
  5
157
330
1B
100
AcDbEntity
 67
     1
  8
0
  6
Continuous
 62
     7
370
    25
100
AcDbLine
 10
-318.2
 20
47.5
 30
0.0
 11
-318.2
 21
49.0
 31
0.0
  0
LINE
  5
158
330
1B
100
AcDbEntity
 67
     1
  8
0
  6
Continuous
 62
     7
370
    25
100
AcDbLine
 10
-38.2
 20
109.0
 30
0.0
 11
36.8
 21
109.0
 31
0.0
  0
LINE
  5
159
330
1B
100
AcDbEntity
 67
     1
  8
0
  6
Continuous
 62
     7
370
    25
100
AcDbLine
 10
316.8
 20
49.0
 30
0.0
 11
316.8
 21
47.5
 31
0.0
  0
LINE
  5
15A
330
1B
100
AcDbEntity
 67
     1
  8
0
  6
Continuous
 62
     7
370
    25
100
AcDbLine
 10
309.1
 20
284.0
 30
0.0
 11
-309.1
 21
284.0
 31
0.0
  0
LINE
  5
15B
330
1B
100
AcDbEntity
 67
     1
  8
0
  6
Continuous
 62
     7
370
    25
100
AcDbLine
 10
-362.0
 20
344.0
 30
0.0
 11
362.0
 21
344.0
 31
0.0
  0
ARC
  5
15C
330
1B
100
AcDbEntity
 67
     1
  8
0
  6
Continuous
 62
     7
370
    25
100
AcDbCircle
 10
324.1
 20
229.7316441283
 30
0.0
 40
3.000000000000057
100
AcDbArc
 50
90.0
 51
270.0
  0
ARC
  5
15D
330
1B
100
AcDbEntity
 67
     1
  8
0
  6
Continuous
 62
     7
370
    25
100
AcDbCircle
 10
340.1
 20
229.7316441283
 30
0.0
 40
3.000000000000057
100
AcDbArc
 50
270.0
 51
90.0
  0
ARC
  5
15E
330
1B
100
AcDbEntity
 67
     1
  8
0
  6
Continuous
 62
     7
370
    25
100
AcDbCircle
 10
332.1
 20
256.7316441283
 30
0.0
 40
3.0
100
AcDbArc
 50
180.0
 51
0.0
  0
ARC
  5
15F
330
1B
100
AcDbEntity
 67
     1
  8
0
  6
Continuous
 62
     7
370
    25
100
AcDbCircle
 10
332.1
 20
266.7316441283
 30
0.0
 40
3.0
100
AcDbArc
 50
0.0
 51
180.0
  0
ARC
  5
160
330
1B
100
AcDbEntity
 67
     1
  8
0
  6
Continuous
 62
     7
370
    25
100
AcDbCircle
 10
324.1
 20
293.7316441283
 30
0.0
 40
3.0
100
AcDbArc
 50
90.0
 51
270.0
  0
ARC
  5
161
330
1B
100
AcDbEntity
 67
     1
  8
0
  6
Continuous
 62
     7
370
    25
100
AcDbCircle
 10
340.1
 20
293.7316441283
 30
0.0
 40
3.0
100
AcDbArc
 50
270.0
 51
90.0
  0
ARC
  5
162
330
1B
100
AcDbEntity
 67
     1
  8
0
  6
Continuous
 62
     7
370
    25
100
AcDbCircle
 10
-324.1
 20
293.7316441283
 30
0.0
 40
3.0
100
AcDbArc
 50
270.0
 51
90.0
  0
ARC
  5
163
330
1B
100
AcDbEntity
 67
     1
  8
0
  6
Continuous
 62
     7
370
    25
100
AcDbCircle
 10
-332.1
 20
266.7316441283
 30
0.0
 40
3.0
100
AcDbArc
 50
0.0
 51
180.0
  0
ARC
  5
164
330
1B
100
AcDbEntity
 67
     1
  8
0
  6
Continuous
 62
     7
370
    25
100
AcDbCircle
 10
-332.1
 20
256.7316441283
 30
0.0
 40
3.0
100
AcDbArc
 50
180.0
 51
0.0
  0
ARC
  5
165
330
1B
100
AcDbEntity
 67
     1
  8
0
  6
Continuous
 62
     7
370
    25
100
AcDbCircle
 10
-324.1
 20
229.7316441283
 30
0.0
 40
3.000000000000057
100
AcDbArc
 50
270.0
 51
90.0
  0
ARC
  5
166
330
1B
100
AcDbEntity
 67
     1
  8
0
  6
Continuous
 62
     7
370
    25
100
AcDbCircle
 10
-340.1
 20
229.7316441283
 30
0.0
 40
3.000000000000057
100
AcDbArc
 50
90.0
 51
270.0
  0
ARC
  5
167
330
1B
100
AcDbEntity
 67
     1
  8
0
  6
Continuous
 62
     7
370
    25
100
AcDbCircle
 10
-340.1
 20
293.7316441283
 30
0.0
 40
3.0
100
AcDbArc
 50
90.0
 51
270.0
  0
ARC
  5
168
330
1B
100
AcDbEntity
 67
     1
  8
0
  6
Continuous
 62
     7
370
    25
100
AcDbCircle
 10
-320.2
 20
49.5
 30
0.0
 40
1.99999999999995
100
AcDbArc
 50
270.0
 51
345.5224878141
  0
ARC
  5
169
330
1B
100
AcDbEntity
 67
     1
  8
0
  6
Continuous
 62
     7
370
    25
100
AcDbCircle
 10
-348.2
 20
204.5
 30
0.0
 40
7.999999999999901
100
AcDbArc
 50
316.5674634422
 51
284.4775121859
  0
ARC
  5
16A
330
1B
100
AcDbEntity
 67
     1
  8
0
  6
Continuous
 62
     7
370
    25
100
AcDbCircle
 10
318.8
 20
49.5
 30
0.0
 40
2.000000000000086
100
AcDbArc
 50
194.4775121859
 51
270.0
  0
ARC
  5
16B
330
1B
100
AcDbEntity
 67
     1
  8
0
  6
Continuous
 62
     7
370
    25
100
AcDbCircle
 10
346.8
 20
204.5
 30
0.0
 40
8.000000000000075
100
AcDbArc
 50
255.5224878141
 51
223.4325365578
  0
ARC
  5
16C
330
1B
100
AcDbEntity
 67
     1
  8
0
  6
Continuous
 62
     7
370
    25
100
AcDbCircle
 10
-38.2
 20
196.5
 30
0.0
 40
87.50000000000044
100
AcDbArc
 50
216.8698976458
 51
270.0
  0
ARC
  5
16D
330
1B
100
AcDbEntity
 67
     1
  8
0
  6
Continuous
 62
     7
370
    25
100
AcDbCircle
 10
36.8
 20
196.5
 30
0.0
 40
87.50000000000006
100
AcDbArc
 50
270.0
 51
323.1301023542
  0
ARC
  5
16E
330
1B
100
AcDbEntity
 67
     1
  8
0
  6
Continuous
 62
     7
370
    25
100
AcDbCircle
 10
-218.2
 20
61.5
 30
0.0
 40
137.5000000000005
100
AcDbArc
 50
36.8698976458
 51
90.0
  0
ARC
  5
16F
330
1B
100
AcDbEntity
 67
     1
  8
0
  6
Continuous
 62
     7
370
    25
100
AcDbCircle
 10
216.8
 20
61.5
 30
0.0
 40
137.5000000000009
100
AcDbArc
 50
90.0
 51
143.1301023542
  0
VIEWPORT
  5
3EB
330
1B
100
AcDbEntity
 67
     1
  8
0
100
AcDbViewport
 10
0.0
 20
0.0
 30
0.0
 40
205.6
 41
156.0
 68
     1
 69
     1
 12
0.0
 22
200.0
 13
0.0
 23
0.0
 14
10.0
 24
10.0
 15
10.0
 25
10.0
 16
0.0
 26
0.0
 36
1.0
 17
0.0
 27
0.0
 37
0.0
 42
50.0
 43
0.0
 44
0.0
 45
588.4963424125
 50
0.0
 51
0.0
 72
   100
 90
   557152
  1

281
     0
 71
     1
 74
     0
110
0.0
120
0.0
130
0.0
111
1.0
121
0.0
131
0.0
112
0.0
122
1.0
132
0.0
 79
     0
146
0.0
  0
ENDSEC
  0
SECTION
  2
OBJECTS
  0
DICTIONARY
  5
C
330
0
100
AcDbDictionary
281
     1
  3
ACAD_GROUP
350
D
  3
ACAD_LAYOUT
350
1A
  3
ACAD_MLINESTYLE
350
17
  3
ACAD_PLOTSETTINGS
350
19
  3
ACAD_PLOTSTYLENAME
350
E
  3
ACAD_SCALELIST
350
47
  0
DICTIONARY
  5
D
102
{ACAD_REACTORS
330
C
102
}
330
C
100
AcDbDictionary
281
     1
  0
DICTIONARY
  5
1A
102
{ACAD_REACTORS
330
C
102
}
330
C
100
AcDbDictionary
281
     1
  3
_Back
350
1E
  3
_Isometric
350
278
  3
_Left
350
26
  3
_Top
350
18D
  3
Model
350
22
  0
DICTIONARY
  5
17
102
{ACAD_REACTORS
330
C
102
}
330
C
100
AcDbDictionary
281
     1
  3
Standard
350
18
  0
DICTIONARY
  5
19
102
{ACAD_REACTORS
330
C
102
}
330
C
100
AcDbDictionary
281
     1
  0
ACDBDICTIONARYWDFLT
  5
E
102
{ACAD_REACTORS
330
C
102
}
330
C
100
AcDbDictionary
281
     1
  3
Normal
350
F
100
AcDbDictionaryWithDefault
340
F
  0
DICTIONARY
  5
47
102
{ACAD_REACTORS
330
C
102
}
330
C
100
AcDbDictionary
281
     1
  3
A0
350
48
  3
A1
350
49
  3
A2
350
4A
  3
A3
350
4B
  3
A4
350
4C
  3
A5
350
4D
  3
A6
350
4E
  3
A7
350
4F
  3
A8
350
50
  3
A9
350
51
  3
B0
350
52
  3
B1
350
53
  3
B2
350
54
  3
B3
350
55
  3
B4
350
56
  3
B5
350
57
  3
B6
350
58
  3
B7
350
59
  3
B8
350
5A
  3
B9
350
5B
  3
C0
350
5C
  3
C1
350
5D
  3
C2
350
5E
  3
C3
350
5F
  3
C4
350
60
  3
C5
350
61
  3
C6
350
62
  3
C7
350
63
  3
C8
350
64
  3
C9
350
65
  3
D0
350
66
  3
D1
350
67
  3
D2
350
68
  0
LAYOUT
  5
1E
102
{ACAD_REACTORS
330
1A
102
}
330
1A
100
AcDbPlotSettings
  1

  2
none_device
  4
ISO_A4_(210.00_x_297.00_MM)
  6

 40
7.5
 41
20.0
 42
7.5
 43
20.0
 44
210.0
 45
297.0
 46
0.0
 47
0.0
 48
0.0
 49
0.0
140
0.0
141
0.0
142
1.0
143
2.9587548638
 70
   688
 72
     1
 73
     1
 74
     1
  7

 75
     0
147
0.3379800105
148
380.2
149
0.0
100
AcDbLayout
  1
_Back
 70
     1
 71
     1
 10
-439.3750972763
 20
-22.1906614786
 11
439.3750972763
 21
599.1478599222
 12
0.0
 22
0.0
 32
0.0
 14
-380.2
 24
0.0
 34
0.0
 15
380.2
 25
400.0
 35
0.0
146
0.0
 13
0.0
 23
0.0
 33
0.0
 16
1.0
 26
0.0
 36
0.0
 17
0.0
 27
1.0
 37
0.0
 76
     0
330
1B
331
3EB
  0
LAYOUT
  5
278
102
{ACAD_REACTORS
330
1A
102
}
330
1A
100
AcDbPlotSettings
  1

  2
none_device
  4
ISO_A4_(210.00_x_297.00_MM)
  6

 40
7.5
 41
20.0
 42
7.5
 43
20.0
 44
210.0
 45
297.0
 46
0.0
 47
0.0
 48
0.0
 49
0.0
140
0.0
141
0.0
142
1.0
143
2.9587548638
 70
   688
 72
     1
 73
     1
 74
     1
  7

 75
     0
147
0.3379800105
148
380.2
149
0.0
100
AcDbLayout
  1
_Isometric
 70
     1
 71
     4
 10
0.0
 20
0.0
 11
0.0
 21
0.0
 12
0.0
 22
0.0
 32
0.0
 14
0.0
 24
0.0
 34
0.0
 15
0.0
 25
0.0
 35
0.0
146
0.0
 13
0.0
 23
0.0
 33
0.0
 16
1.0
 26
0.0
 36
0.0
 17
0.0
 27
1.0
 37
0.0
 76
     0
330
277
331
3F1
  0
LAYOUT
  5
26
102
{ACAD_REACTORS
330
1A
102
}
330
1A
100
AcDbPlotSettings
  1

  2
none_device
  4
ISO_A4_(210.00_x_297.00_MM)
  6

 40
7.5
 41
20.0
 42
7.5
 43
20.0
 44
210.0
 45
297.0
 46
0.0
 47
0.0
 48
0.0
 49
0.0
140
0.0
141
0.0
142
1.0
143
2.9587548638
 70
   688
 72
     1
 73
     1
 74
     1
  7

 75
     0
147
0.3379800105
148
380.2
149
0.0
100
AcDbLayout
  1
_Left
 70
     1
 71
     2
 10
0.0
 20
0.0
 11
0.0
 21
0.0
 12
0.0
 22
0.0
 32
0.0
 14
0.0
 24
0.0
 34
0.0
 15
0.0
 25
0.0
 35
0.0
146
0.0
 13
0.0
 23
0.0
 33
0.0
 16
1.0
 26
0.0
 36
0.0
 17
0.0
 27
1.0
 37
0.0
 76
     0
330
23
331
3ED
  0
LAYOUT
  5
18D
102
{ACAD_REACTORS
330
1A
102
}
330
1A
100
AcDbPlotSettings
  1

  2
none_device
  4
ISO_A4_(210.00_x_297.00_MM)
  6

 40
7.5
 41
20.0
 42
7.5
 43
20.0
 44
210.0
 45
297.0
 46
0.0
 47
0.0
 48
0.0
 49
0.0
140
0.0
141
0.0
142
1.0
143
2.9587548638
 70
   688
 72
     1
 73
     1
 74
     1
  7

 75
     0
147
0.3379800105
148
380.2
149
0.0
100
AcDbLayout
  1
_Top
 70
     1
 71
     3
 10
0.0
 20
0.0
 11
0.0
 21
0.0
 12
0.0
 22
0.0
 32
0.0
 14
0.0
 24
0.0
 34
0.0
 15
0.0
 25
0.0
 35
0.0
146
0.0
 13
0.0
 23
0.0
 33
0.0
 16
1.0
 26
0.0
 36
0.0
 17
0.0
 27
1.0
 37
0.0
 76
     0
330
18C
331
3EF
  0
LAYOUT
  5
22
102
{ACAD_REACTORS
330
1A
102
}
330
1A
100
AcDbPlotSettings
  1

  2
none_device
  4
ANSI_A_(11.00_x_8.50_Inches)
  6

 40
6.35
 41
19.05
 42
6.35000508
 43
19.05000254
 44
279.4
 45
215.9
 46
133.34999746
 47
16.1472370256
 48
0.0
 49
0.0
140
0.0
141
0.0
142
0.0143214098
143
1.0
 70
  1696
 72
     0
 73
     0
 74
     0
  7

 75
     0
147
0.0179189148
148
-1300.4909072572
149
0.0
100
AcDbLayout
  1
Model
 70
     1
 71
     0
 10
0.0
 20
0.0
 11
420.0
 21
297.0
 12
0.0
 22
0.0
 32
0.0
 14
-380.2
 24
0.0
 34
0.0
 15
380.2
 25
400.0
 35
0.0
146
0.0
 13
0.0
 23
0.0
 33
0.0
 16
1.0
 26
0.0
 36
0.0
 17
0.0
 27
1.0
 37
0.0
 76
     0
330
1F
331
29
  0
MLINESTYLE
  5
18
102
{ACAD_REACTORS
330
17
102
}
330
17
100
AcDbMlineStyle
  2
Standard
 70
     0
  3

 62
   256
 51
90.0
 52
90.0
 71
     2
 49
0.5
 62
   256
  6
BYLAYER
 49
-0.5
 62
   256
  6
BYLAYER
  0
ACDBPLACEHOLDER
  5
F
102
{ACAD_REACTORS
330
E
102
}
330
E
  0
SCALE
  5
48
102
{ACAD_REACTORS
330
47
102
}
330
47
100
AcDbScale
 70
     0
300
1:1
140
1.0
141
1.0
290
     1
  0
SCALE
  5
49
102
{ACAD_REACTORS
330
47
102
}
330
47
100
AcDbScale
 70
     0
300
1:2
140
1.0
141
2.0
290
     0
  0
SCALE
  5
4A
102
{ACAD_REACTORS
330
47
102
}
330
47
100
AcDbScale
 70
     0
300
1:4
140
1.0
141
4.0
290
     0
  0
SCALE
  5
4B
102
{ACAD_REACTORS
330
47
102
}
330
47
100
AcDbScale
 70
     0
300
1:5
140
1.0
141
5.0
290
     0
  0
SCALE
  5
4C
102
{ACAD_REACTORS
330
47
102
}
330
47
100
AcDbScale
 70
     0
300
1:8
140
1.0
141
8.0
290
     0
  0
SCALE
  5
4D
102
{ACAD_REACTORS
330
47
102
}
330
47
100
AcDbScale
 70
     0
300
1:10
140
1.0
141
10.0
290
     0
  0
SCALE
  5
4E
102
{ACAD_REACTORS
330
47
102
}
330
47
100
AcDbScale
 70
     0
300
1:16
140
1.0
141
16.0
290
     0
  0
SCALE
  5
4F
102
{ACAD_REACTORS
330
47
102
}
330
47
100
AcDbScale
 70
     0
300
1:20
140
1.0
141
20.0
290
     0
  0
SCALE
  5
50
102
{ACAD_REACTORS
330
47
102
}
330
47
100
AcDbScale
 70
     0
300
1:30
140
1.0
141
30.0
290
     0
  0
SCALE
  5
51
102
{ACAD_REACTORS
330
47
102
}
330
47
100
AcDbScale
 70
     0
300
1:40
140
1.0
141
40.0
290
     0
  0
SCALE
  5
52
102
{ACAD_REACTORS
330
47
102
}
330
47
100
AcDbScale
 70
     0
300
1:50
140
1.0
141
50.0
290
     0
  0
SCALE
  5
53
102
{ACAD_REACTORS
330
47
102
}
330
47
100
AcDbScale
 70
     0
300
1:100
140
1.0
141
100.0
290
     0
  0
SCALE
  5
54
102
{ACAD_REACTORS
330
47
102
}
330
47
100
AcDbScale
 70
     0
300
2:1
140
2.0
141
1.0
290
     0
  0
SCALE
  5
55
102
{ACAD_REACTORS
330
47
102
}
330
47
100
AcDbScale
 70
     0
300
4:1
140
4.0
141
1.0
290
     0
  0
SCALE
  5
56
102
{ACAD_REACTORS
330
47
102
}
330
47
100
AcDbScale
 70
     0
300
8:1
140
8.0
141
1.0
290
     0
  0
SCALE
  5
57
102
{ACAD_REACTORS
330
47
102
}
330
47
100
AcDbScale
 70
     0
300
10:1
140
10.0
141
1.0
290
     0
  0
SCALE
  5
58
102
{ACAD_REACTORS
330
47
102
}
330
47
100
AcDbScale
 70
     0
300
100:1
140
100.0
141
1.0
290
     0
  0
SCALE
  5
59
102
{ACAD_REACTORS
330
47
102
}
330
47
100
AcDbScale
 70
     0
300
1/128" = 1'-0"
140
0.0078125
141
12.0
290
     0
  0
SCALE
  5
5A
102
{ACAD_REACTORS
330
47
102
}
330
47
100
AcDbScale
 70
     0
300
1/64" = 1'-0"
140
0.015625
141
12.0
290
     0
  0
SCALE
  5
5B
102
{ACAD_REACTORS
330
47
102
}
330
47
100
AcDbScale
 70
     0
300
1/32" = 1'-0"
140
0.03125
141
12.0
290
     0
  0
SCALE
  5
5C
102
{ACAD_REACTORS
330
47
102
}
330
47
100
AcDbScale
 70
     0
300
1/16" = 1'-0"
140
0.0625
141
12.0
290
     0
  0
SCALE
  5
5D
102
{ACAD_REACTORS
330
47
102
}
330
47
100
AcDbScale
 70
     0
300
3/32" = 1'-0"
140
0.09375
141
12.0
290
     0
  0
SCALE
  5
5E
102
{ACAD_REACTORS
330
47
102
}
330
47
100
AcDbScale
 70
     0
300
1/8" = 1'-0"
140
0.125
141
12.0
290
     0
  0
SCALE
  5
5F
102
{ACAD_REACTORS
330
47
102
}
330
47
100
AcDbScale
 70
     0
300
3/16" = 1'-0"
140
0.1875
141
12.0
290
     0
  0
SCALE
  5
60
102
{ACAD_REACTORS
330
47
102
}
330
47
100
AcDbScale
 70
     0
300
1/4" = 1'-0"
140
0.25
141
12.0
290
     0
  0
SCALE
  5
61
102
{ACAD_REACTORS
330
47
102
}
330
47
100
AcDbScale
 70
     0
300
3/8" = 1'-0"
140
0.375
141
12.0
290
     0
  0
SCALE
  5
62
102
{ACAD_REACTORS
330
47
102
}
330
47
100
AcDbScale
 70
     0
300
1/2" = 1'-0"
140
0.5
141
12.0
290
     0
  0
SCALE
  5
63
102
{ACAD_REACTORS
330
47
102
}
330
47
100
AcDbScale
 70
     0
300
3/4" = 1'-0"
140
0.75
141
12.0
290
     0
  0
SCALE
  5
64
102
{ACAD_REACTORS
330
47
102
}
330
47
100
AcDbScale
 70
     0
300
1" = 1'-0"
140
1.0
141
12.0
290
     0
  0
SCALE
  5
65
102
{ACAD_REACTORS
330
47
102
}
330
47
100
AcDbScale
 70
     0
300
1-1/2" = 1'-0"
140
1.5
141
12.0
290
     0
  0
SCALE
  5
66
102
{ACAD_REACTORS
330
47
102
}
330
47
100
AcDbScale
 70
     0
300
3" = 1'-0"
140
3.0
141
12.0
290
     0
  0
SCALE
  5
67
102
{ACAD_REACTORS
330
47
102
}
330
47
100
AcDbScale
 70
     0
300
6" = 1'-0"
140
6.0
141
12.0
290
     0
  0
SCALE
  5
68
102
{ACAD_REACTORS
330
47
102
}
330
47
100
AcDbScale
 70
     0
300
1'-0" = 1'-0"
140
12.0
141
12.0
290
     0
  0
ENDSEC
  0
EOF
